  0
SECTION
  2
HEADER
  9
$ACADVER
  1
AC1014
  9
$HANDSEED
  5
FFFF
  9
$MEASUREMENT
 70
     1
  0
ENDSEC
  0
SECTION
  2
TABLES
  0
TABLE
  2
VPORT
  5
8
330
0
100
AcDbSymbolTable
 70
     4
  0
VPORT
  5
2E
330
8
100
AcDbSymbolTableRecord
100
AcDbViewportTableRecord
  2
*ACTIVE
 70
     0
 10
0.0
 20
0.0
 11
1.0
 21
1.0
 12
210.0
 22
148.5
 13
0.0
 23
0.0
 14
10.0
 24
10.0
 15
10.0
 25
10.0
 16
0.0
 26
0.0
 36
1.0
 17
0.0
 27
0.0
 37
0.0
 40
341.0
 41
1.24
 42
50.0
 43
0.0
 44
0.0
 50
0.0
 51
0.0
 71
     0
 72
   100
 73
     1
 74
     3
 75
     0
 76
     0
 77
     0
 78
     0
  0
ENDTAB
  0
TABLE
  2
LTYPE
  5
5
330
0
100
AcDbSymbolTable
 70
     1
  0
LTYPE
  5
14
330
5
100
AcDbSymbolTableRecord
100
AcDbLinetypeTableRecord
  2
BYBLOCK
 70
     0
  3

 72
    65
 73
     0
 40
0.0
  0
LTYPE
  5
15
330
5
100
AcDbSymbolTableRecord
100
AcDbLinetypeTableRecord
  2
BYLAYER
 70
     0
  3

 72
    65
 73
     0
 40
0.0
  0
LTYPE
  5
16
330
5
100
AcDbSymbolTableRecord
100
AcDbLinetypeTableRecord
  2
CONTINUOUS
 70
     0
  3
Solid line
 72
    65
 73
     0
 40
0.0
  0
ENDTAB
  0
TABLE
  2
LAYER
  5
2
100
AcDbSymbolTable
 70
3
  0
LAYER
  5
50
100
AcDbSymbolTableRecord
100
AcDbLayerTableRecord
  2
0
 70
0
  6
CONTINUOUS
  0
LAYER
  5
51
100
AcDbSymbolTableRecord
100
AcDbLayerTableRecord
  2
Layer_1
 70
0
  6
CONTINUOUS
  0
LAYER
  5
52
100
AcDbSymbolTableRecord
100
AcDbLayerTableRecord
  2
newlayer
 70
0
  6
CONTINUOUS
  0
ENDTAB
  0
TABLE
  2
STYLE
  5
3
330
0
100
AcDbSymbolTable
 70
     1
  0
STYLE
  5
11
330
3
100
AcDbSymbolTableRecord
100
AcDbTextStyleTableRecord
  2
STANDARD
 70
     0
 40
0.0
 41
1.0
 50
0.0
 71
     0
 42
2.5
  3
txt
  4

  0
ENDTAB
  0
TABLE
  2
VIEW
  5
6
330
0
100
AcDbSymbolTable
 70
     0
  0
ENDTAB
  0
TABLE
  2
UCS
  5
7
330
0
100
AcDbSymbolTable
 70
     0
  0
ENDTAB
  0
TABLE
  2
APPID
  5
9
330
0
100
AcDbSymbolTable
 70
     2
  0
APPID
  5
12
330
9
100
AcDbSymbolTableRecord
100
AcDbRegAppTableRecord
  2
ACAD
 70
     0
  0
ENDTAB
  0
TABLE
  2
DIMSTYLE
  5
A
330
0
100
AcDbSymbolTable
 70
     1
  0
DIMSTYLE
105
27
330
A
100
AcDbSymbolTableRecord
100
AcDbDimStyleTableRecord
  2
ISO-25
 70
     0
  3

  4

  5

  6

  7

 40
1.0
 41
2.5
 42
0.625
 43
3.75
 44
1.25
 45
0.0
 46
0.0
 47
0.0
 48
0.0
140
2.5
141
2.5
142
0.0
143
0.03937007874016
144
1.0
145
0.0
146
1.0
147
0.625
 71
     0
 72
     0
 73
     0
 74
     0
 75
     0
 76
     0
 77
     1
 78
     8
170
     0
171
     3
172
     1
173
     0
174
     0
175
     0
176
     0
177
     0
178
     0
270
     2
271
     2
272
     2
273
     2
274
     3
340
11
275
     0
280
     0
281
     0
282
     0
283
     0
284
     8
285
     0
286
     0
287
     3
288
     0
  0
ENDTAB
  0
TABLE
  2
BLOCK_RECORD
  5
1
330
0
100
AcDbSymbolTable
 70
     1
  0
BLOCK_RECORD
  5
1F
330
1
100
AcDbSymbolTableRecord
100
AcDbBlockTableRecord
  2
*MODEL_SPACE
  0
BLOCK_RECORD
  5
1B
330
1
100
AcDbSymbolTableRecord
100
AcDbBlockTableRecord
  2
*PAPER_SPACE
  0
ENDTAB
  0
ENDSEC
  0
SECTION
  2
BLOCKS
  0
BLOCK
  5
20
330
1F
100
AcDbEntity
  8
0
100
AcDbBlockBegin
  2
*MODEL_SPACE
 70
     0
 10
0.0
 20
0.0
 30
0.0
  3
*MODEL_SPACE
  1

  0
ENDBLK
  5
21
330
1F
100
AcDbEntity
  8
0
100
AcDbBlockEnd
  0
BLOCK
  5
1C
330
1B
100
AcDbEntity
 67
     1
  8
0
100
AcDbBlockBegin
  2
*PAPER_SPACE
  1

  0
ENDBLK
  5
1D
330
1B
100
AcDbEntity
 67
     1
  8
0
100
AcDbBlockEnd
  0
ENDSEC
  0
SECTION
  2
ENTITIES
  0
SPLINE
  5
100
100
AcDbEntity
  8
newlayer
 62
7
100
AcDbSpline
 70
8
 71
3
 72
8
 73
4
 74
0
 40
0
 40
0
 40
0
 40
0
 40
1
 40
1
 40
1
 40
1
 10
143.384365
 20
682.353472
 30
0.0
 10
145.606177
 20
681.782297
 30
0.0
 10
146.717084
 20
680.211567
 30
0.0
 10
146.717084
 20
677.641282
 30
0.0
  0
SPLINE
  5
101
100
AcDbEntity
  8
newlayer
 62
7
100
AcDbSpline
 70
8
 71
3
 72
8
 73
4
 74
0
 40
0
 40
0
 40
0
 40
0
 40
1
 40
1
 40
1
 40
1
 10
146.717084
 20
677.641282
 30
0.0
 10
146.717084
 20
677.284298
 30
0.0
 10
146.684410
 20
676.891615
 30
0.0
 10
146.619063
 20
676.463235
 30
0.0
  0
SPLINE
  5
102
100
AcDbEntity
  8
newlayer
 62
7
100
AcDbSpline
 70
8
 71
3
 72
8
 73
4
 74
0
 40
0
 40
0
 40
0
 40
0
 40
1
 40
1
 40
1
 40
1
 10
144.168535
 20
646.262381
 30
0.0
 10
143.711102
 20
642.121366
 30
0.0
 10
143.286342
 20
638.016049
 30
0.0
 10
142.894256
 20
633.946431
 30
0.0
  0
SPLINE
  5
103
100
AcDbEntity
  8
newlayer
 62
7
100
AcDbSpline
 70
8
 71
3
 72
8
 73
4
 74
0
 40
0
 40
0
 40
0
 40
0
 40
1
 40
1
 40
1
 40
1
 10
142.894256
 20
633.946431
 30
0.0
 10
142.828909
 20
629.734020
 30
0.0
 10
142.763563
 20
625.521608
 30
0.0
 10
142.698216
 20
621.309195
 30
0.0
  0
LWPOLYLINE
  5
104
100
AcDbEntity
  8
newlayer
 62
7
100
AcDbPolyline
 90
3
 70
0
 10
146.619063
 20
676.463235
 30
0.0
 10
146.030934
 20
673.250377
 30
0.0
 10
144.168535
 20
646.262381
 30
0.0
  0
SPLINE
  5
105
100
AcDbEntity
  8
newlayer
 62
7
100
AcDbSpline
 70
8
 71
3
 72
8
 73
4
 74
0
 40
0
 40
0
 40
0
 40
0
 40
1
 40
1
 40
1
 40
1
 10
134.856521
 20
608.029384
 30
0.0
 10
134.725827
 20
612.884367
 30
0.0
 10
134.562460
 20
617.703653
 30
0.0
 10
134.366420
 20
622.487240
 30
0.0
  0
SPLINE
  5
106
100
AcDbEntity
  8
newlayer
 62
7
100
AcDbSpline
 70
8
 71
3
 72
8
 73
4
 74
0
 40
0
 40
0
 40
0
 40
0
 40
1
 40
1
 40
1
 40
1
 10
134.366420
 20
622.487240
 30
0.0
 10
134.235727
 20
622.273052
 30
0.0
 10
133.810967
 20
627.128036
 30
0.0
 10
133.092141
 20
637.052192
 30
0.0
  0
LWPOLYLINE
  5
107
100
AcDbEntity
  8
newlayer
 62
7
100
AcDbPolyline
 90
5
 70
0
 10
142.698216
 20
621.309195
 30
0.0
 10
142.306127
 20
605.244909
 30
0.0
 10
141.816026
 20
597.426963
 30
0.0
 10
135.640690
 20
597.105671
 30
0.0
 10
134.856521
 20
608.029384
 30
0.0
  0
SPLINE
  5
108
100
AcDbEntity
  8
newlayer
 62
7
100
AcDbSpline
 70
8
 71
3
 72
8
 73
4
 74
0
 40
0
 40
0
 40
0
 40
0
 40
1
 40
1
 40
1
 40
1
 10
95.157967
 20
638.551525
 30
0.0
 10
95.092620
 20
635.981240
 30
0.0
 10
94.929251
 20
632.982574
 30
0.0
 10
94.667861
 20
629.555527
 30
0.0
  0
SPLINE
  5
109
100
AcDbEntity
  8
newlayer
 62
7
100
AcDbSpline
 70
8
 71
3
 72
8
 73
4
 74
0
 40
0
 40
0
 40
0
 40
0
 40
1
 40
1
 40
1
 40
1
 10
94.667861
 20
629.555527
 30
0.0
 10
94.471819
 20
626.913847
 30
0.0
 10
94.373798
 20
625.593007
 30
0.0
 10
94.373798
 20
625.593007
 30
0.0
  0
SPLINE
  5
10a
100
AcDbEntity
  8
newlayer
 62
7
100
AcDbSpline
 70
8
 71
3
 72
8
 73
4
 74
0
 40
0
 40
0
 40
0
 40
0
 40
1
 40
1
 40
1
 40
1
 10
94.373798
 20
625.593007
 30
0.0
 10
94.569840
 20
625.593007
 30
0.0
 10
94.569840
 20
624.093674
 30
0.0
 10
94.373798
 20
621.095007
 30
0.0
  0
SPLINE
  5
10b
100
AcDbEntity
  8
newlayer
 62
7
100
AcDbSpline
 70
8
 71
3
 72
8
 73
4
 74
0
 40
0
 40
0
 40
0
 40
0
 40
1
 40
1
 40
1
 40
1
 10
94.373798
 20
621.095007
 30
0.0
 10
94.308451
 20
619.595671
 30
0.0
 10
94.243104
 20
618.096337
 30
0.0
 10
94.177756
 20
616.597007
 30
0.0
  0
SPLINE
  5
10c
100
AcDbEntity
  8
newlayer
 62
7
100
AcDbSpline
 70
8
 71
3
 72
8
 73
4
 74
0
 40
0
 40
0
 40
0
 40
0
 40
1
 40
1
 40
1
 40
1
 10
94.177756
 20
616.597007
 30
0.0
 10
93.981714
 20
612.170400
 30
0.0
 10
93.785671
 20
607.743796
 30
0.0
 10
93.589629
 20
603.317196
 30
0.0
  0
LWPOLYLINE
  5
10d
100
AcDbEntity
  8
newlayer
 62
7
100
AcDbPolyline
 90
10
 70
0
 10
133.092141
 20
637.052192
 30
0.0
 10
133.092141
 20
651.831333
 30
0.0
 10
125.250455
 20
622.808532
 30
0.0
 10
120.937527
 20
611.135151
 30
0.0
 10
118.486998
 20
601.710765
 30
0.0
 10
108.782903
 20
602.032057
 30
0.0
 10
105.156125
 20
617.882146
 30
0.0
 10
100.549128
 20
632.125812
 30
0.0
 10
95.354010
 20
654.187428
 30
0.0
 10
95.157967
 20
638.551525
 30
0.0
  0
SPLINE
  5
10e
100
AcDbEntity
  8
newlayer
 62
7
100
AcDbSpline
 70
8
 71
3
 72
8
 73
4
 74
0
 40
0
 40
0
 40
0
 40
0
 40
1
 40
1
 40
1
 40
1
 10
85.845960
 20
597.426963
 30
0.0
 10
85.780612
 20
599.283280
 30
0.0
 10
85.715265
 20
603.031612
 30
0.0
 10
85.649918
 20
608.671958
 30
0.0
  0
SPLINE
  5
10f
100
AcDbEntity
  8
newlayer
 62
7
100
AcDbSpline
 70
8
 71
3
 72
8
 73
4
 74
0
 40
0
 40
0
 40
0
 40
0
 40
1
 40
1
 40
1
 40
1
 10
85.649918
 20
608.671958
 30
0.0
 10
85.584571
 20
611.028054
 30
0.0
 10
85.388528
 20
613.919623
 30
0.0
 10
85.061791
 20
617.346666
 30
0.0
  0
SPLINE
  5
110
100
AcDbEntity
  8
newlayer
 62
7
100
AcDbSpline
 70
8
 71
3
 72
8
 73
4
 74
0
 40
0
 40
0
 40
0
 40
0
 40
1
 40
1
 40
1
 40
1
 10
85.061791
 20
617.346666
 30
0.0
 10
84.996444
 20
618.560412
 30
0.0
 10
84.898423
 20
619.774161
 30
0.0
 10
84.767727
 20
620.987913
 30
0.0
  0
SPLINE
  5
111
100
AcDbEntity
  8
newlayer
 62
7
100
AcDbSpline
 70
8
 71
3
 72
8
 73
4
 74
0
 40
0
 40
0
 40
0
 40
0
 40
1
 40
1
 40
1
 40
1
 10
84.767727
 20
620.987913
 30
0.0
 10
84.833075
 20
623.058418
 30
0.0
 10
84.931097
 20
625.128923
 30
0.0
 10
85.061791
 20
627.199428
 30
0.0
  0
SPLINE
  5
112
100
AcDbEntity
  8
newlayer
 62
7
100
AcDbSpline
 70
8
 71
3
 72
8
 73
4
 74
0
 40
0
 40
0
 40
0
 40
0
 40
1
 40
1
 40
1
 40
1
 10
85.061791
 20
627.199428
 30
0.0
 10
84.931097
 20
631.697430
 30
0.0
 10
84.865749
 20
633.946431
 30
0.0
 10
84.865749
 20
633.946431
 30
0.0
  0
SPLINE
  5
113
100
AcDbEntity
  8
newlayer
 62
7
100
AcDbSpline
 70
8
 71
3
 72
8
 73
4
 74
0
 40
0
 40
0
 40
0
 40
0
 40
1
 40
1
 40
1
 40
1
 10
84.865749
 20
633.946431
 30
0.0
 10
84.669707
 20
638.087446
 30
0.0
 10
84.440990
 20
642.192762
 30
0.0
 10
84.179601
 20
646.262381
 30
0.0
  0
LWPOLYLINE
  5
114
100
AcDbEntity
  8
newlayer
 62
7
100
AcDbPolyline
 90
3
 70
0
 10
93.589629
 20
603.317196
 30
0.0
 10
93.197545
 20
597.426963
 30
0.0
 10
85.845960
 20
597.426963
 30
0.0
  0
SPLINE
  5
115
100
AcDbEntity
  8
newlayer
 62
7
100
AcDbSpline
 70
8
 71
3
 72
8
 73
4
 74
0
 40
0
 40
0
 40
0
 40
0
 40
1
 40
1
 40
1
 40
1
 10
84.865749
 20
664.361474
 30
0.0
 10
84.473664
 20
666.503379
 30
0.0
 10
84.081579
 20
668.645283
 30
0.0
 10
83.689495
 20
670.787187
 30
0.0
  0
SPLINE
  5
116
100
AcDbEntity
  8
newlayer
 62
7
100
AcDbSpline
 70
8
 71
3
 72
8
 73
4
 74
0
 40
0
 40
0
 40
0
 40
0
 40
1
 40
1
 40
1
 40
1
 10
83.689495
 20
670.787187
 30
0.0
 10
83.166716
 20
673.571663
 30
0.0
 10
83.003348
 20
675.606473
 30
0.0
 10
83.199390
 20
676.891616
 30
0.0
  0
SPLINE
  5
117
100
AcDbEntity
  8
newlayer
 62
7
100
AcDbSpline
 70
8
 71
3
 72
8
 73
4
 74
0
 40
0
 40
0
 40
0
 40
0
 40
1
 40
1
 40
1
 40
1
 10
83.199390
 20
676.891616
 30
0.0
 10
83.526127
 20
679.319107
 30
0.0
 10
84.604359
 20
680.889837
 30
0.0
 10
86.434087
 20
681.603805
 30
0.0
  0
SPLINE
  5
118
100
AcDbEntity
  8
newlayer
 62
7
100
AcDbSpline
 70
8
 71
3
 72
8
 73
4
 74
0
 40
0
 40
0
 40
0
 40
0
 40
1
 40
1
 40
1
 40
1
 10
86.434087
 20
681.603805
 30
0.0
 10
86.042002
 20
680.390059
 30
0.0
 10
85.911307
 20
678.033964
 30
0.0
 10
86.042003
 20
674.535521
 30
0.0
  0
SPLINE
  5
119
100
AcDbEntity
  8
newlayer
 62
7
100
AcDbSpline
 70
8
 71
3
 72
8
 73
4
 74
0
 40
0
 40
0
 40
0
 40
0
 40
1
 40
1
 40
1
 40
1
 10
86.042003
 20
674.535521
 30
0.0
 10
86.107350
 20
670.965680
 30
0.0
 10
86.368739
 20
668.645283
 30
0.0
 10
86.826171
 20
667.574331
 30
0.0
  0
SPLINE
  5
11a
100
AcDbEntity
  8
newlayer
 62
7
100
AcDbSpline
 70
8
 71
3
 72
8
 73
4
 74
0
 40
0
 40
0
 40
0
 40
0
 40
1
 40
1
 40
1
 40
1
 10
86.826171
 20
667.574331
 30
0.0
 10
87.087561
 20
667.288743
 30
0.0
 10
87.414298
 20
666.431982
 30
0.0
 10
87.806383
 20
665.004046
 30
0.0
  0
SPLINE
  5
11b
100
AcDbEntity
  8
newlayer
 62
7
100
AcDbSpline
 70
8
 71
3
 72
8
 73
4
 74
0
 40
0
 40
0
 40
0
 40
0
 40
1
 40
1
 40
1
 40
1
 10
87.806383
 20
665.004046
 30
0.0
 10
87.806383
 20
664.647062
 30
0.0
 10
87.871730
 20
663.861697
 30
0.0
 10
88.002425
 20
662.647951
 30
0.0
  0
SPLINE
  5
11c
100
AcDbEntity
  8
newlayer
 62
7
100
AcDbSpline
 70
8
 71
3
 72
8
 73
4
 74
0
 40
0
 40
0
 40
0
 40
0
 40
1
 40
1
 40
1
 40
1
 10
88.002425
 20
662.647951
 30
0.0
 10
88.133120
 20
662.005379
 30
0.0
 10
88.427183
 20
661.112919
 30
0.0
 10
88.884615
 20
659.970570
 30
0.0
  0
SPLINE
  5
11d
100
AcDbEntity
  8
newlayer
 62
7
100
AcDbSpline
 70
8
 71
3
 72
8
 73
4
 74
0
 40
0
 40
0
 40
0
 40
0
 40
1
 40
1
 40
1
 40
1
 10
88.884615
 20
659.970570
 30
0.0
 10
89.799479
 20
658.828220
 30
0.0
 10
90.322258
 20
658.257046
 30
0.0
 10
90.452953
 20
658.257046
 30
0.0
  0
SPLINE
  5
11e
100
AcDbEntity
  8
newlayer
 62
7
100
AcDbSpline
 70
8
 71
3
 72
8
 73
4
 74
0
 40
0
 40
0
 40
0
 40
0
 40
1
 40
1
 40
1
 40
1
 10
90.452953
 20
658.257046
 30
0.0
 10
91.367817
 20
658.257046
 30
0.0
 10
92.217333
 20
660.684538
 30
0.0
 10
93.001502
 20
665.539522
 30
0.0
  0
LWPOLYLINE
  5
11f
100
AcDbEntity
  8
newlayer
 62
7
100
AcDbPolyline
 90
2
 70
0
 10
84.179601
 20
646.262381
 30
0.0
 10
84.865749
 20
664.361474
 30
0.0
  0
SPLINE
  5
120
100
AcDbEntity
  8
newlayer
 62
7
100
AcDbSpline
 70
8
 71
3
 72
8
 73
4
 74
0
 40
0
 40
0
 40
0
 40
0
 40
1
 40
1
 40
1
 40
1
 10
93.393587
 20
668.109807
 30
0.0
 10
93.328240
 20
668.609585
 30
0.0
 10
93.099524
 20
669.466346
 30
0.0
 10
92.707439
 20
670.680092
 30
0.0
  0
SPLINE
  5
121
100
AcDbEntity
  8
newlayer
 62
7
100
AcDbSpline
 70
8
 71
3
 72
8
 73
4
 74
0
 40
0
 40
0
 40
0
 40
0
 40
1
 40
1
 40
1
 40
1
 10
92.707439
 20
670.680092
 30
0.0
 10
92.380702
 20
671.893838
 30
0.0
 10
92.250007
 20
672.786298
 30
0.0
 10
92.315355
 20
673.357473
 30
0.0
  0
SPLINE
  5
122
100
AcDbEntity
  8
newlayer
 62
7
100
AcDbSpline
 70
8
 71
3
 72
8
 73
4
 74
0
 40
0
 40
0
 40
0
 40
0
 40
1
 40
1
 40
1
 40
1
 10
92.315355
 20
673.357473
 30
0.0
 10
92.184660
 20
673.785854
 30
0.0
 10
92.119313
 20
674.214235
 30
0.0
 10
92.119313
 20
674.642616
 30
0.0
  0
SPLINE
  5
123
100
AcDbEntity
  8
newlayer
 62
7
100
AcDbSpline
 70
8
 71
3
 72
8
 73
4
 74
0
 40
0
 40
0
 40
0
 40
0
 40
1
 40
1
 40
1
 40
1
 10
92.119313
 20
674.642616
 30
0.0
 10
92.119313
 20
676.498933
 30
0.0
 10
92.805461
 20
677.891170
 30
0.0
 10
94.177756
 20
678.819330
 30
0.0
  0
SPLINE
  5
124
100
AcDbEntity
  8
newlayer
 62
7
100
AcDbSpline
 70
8
 71
3
 72
8
 73
4
 74
0
 40
0
 40
0
 40
0
 40
0
 40
1
 40
1
 40
1
 40
1
 10
94.177756
 20
678.819330
 30
0.0
 10
93.524282
 20
672.893394
 30
0.0
 10
93.916367
 20
669.751934
 30
0.0
 10
95.354010
 20
669.394950
 30
0.0
  0
SPLINE
  5
125
100
AcDbEntity
  8
newlayer
 62
7
100
AcDbSpline
 70
8
 71
3
 72
8
 73
4
 74
0
 40
0
 40
0
 40
0
 40
0
 40
1
 40
1
 40
1
 40
1
 10
95.354010
 20
669.394950
 30
0.0
 10
96.007483
 20
669.180759
 30
0.0
 10
96.726306
 20
669.894727
 30
0.0
 10
97.510478
 20
671.536854
 30
0.0
  0
SPLINE
  5
126
100
AcDbEntity
  8
newlayer
 62
7
100
AcDbSpline
 70
8
 71
3
 72
8
 73
4
 74
0
 40
0
 40
0
 40
0
 40
0
 40
1
 40
1
 40
1
 40
1
 10
97.510478
 20
671.536854
 30
0.0
 10
98.033258
 20
672.679203
 30
0.0
 10
98.294648
 20
673.714457
 30
0.0
 10
98.294648
 20
674.642616
 30
0.0
  0
SPLINE
  5
127
100
AcDbEntity
  8
newlayer
 62
7
100
AcDbSpline
 70
8
 71
3
 72
8
 73
4
 74
0
 40
0
 40
0
 40
0
 40
0
 40
1
 40
1
 40
1
 40
1
 10
98.294648
 20
674.642616
 30
0.0
 10
98.359995
 20
675.927758
 30
0.0
 10
98.392668
 20
677.212901
 30
0.0
 10
98.392668
 20
678.498043
 30
0.0
  0
SPLINE
  5
128
100
AcDbEntity
  8
newlayer
 62
7
100
AcDbSpline
 70
8
 71
3
 72
8
 73
4
 74
0
 40
0
 40
0
 40
0
 40
0
 40
1
 40
1
 40
1
 40
1
 10
98.392668
 20
678.498043
 30
0.0
 10
99.372875
 20
677.498488
 30
0.0
 10
99.862978
 20
676.141949
 30
0.0
 10
99.862978
 20
674.428425
 30
0.0
  0
SPLINE
  5
129
100
AcDbEntity
  8
newlayer
 62
7
100
AcDbSpline
 70
8
 71
3
 72
8
 73
4
 74
0
 40
0
 40
0
 40
0
 40
0
 40
1
 40
1
 40
1
 40
1
 10
99.862978
 20
674.428425
 30
0.0
 10
99.862978
 20
674.571219
 30
0.0
 10
99.601588
 20
672.607807
 30
0.0
 10
99.078809
 20
668.538188
 30
0.0
  0
SPLINE
  5
12a
100
AcDbEntity
  8
newlayer
 62
7
100
AcDbSpline
 70
8
 71
3
 72
8
 73
4
 74
0
 40
0
 40
0
 40
0
 40
0
 40
1
 40
1
 40
1
 40
1
 10
99.078809
 20
668.538188
 30
0.0
 10
99.078809
 20
666.967458
 30
0.0
 10
99.144158
 20
665.396728
 30
0.0
 10
99.274858
 20
663.825998
 30
0.0
  0
LWPOLYLINE
  5
12b
100
AcDbEntity
  8
newlayer
 62
7
100
AcDbPolyline
 90
2
 70
0
 10
93.001502
 20
665.539522
 30
0.0
 10
93.393587
 20
668.109807
 30
0.0
  0
SPLINE
  5
12c
100
AcDbEntity
  8
newlayer
 62
7
100
AcDbSpline
 70
8
 71
3
 72
8
 73
4
 74
0
 40
0
 40
0
 40
0
 40
0
 40
1
 40
1
 40
1
 40
1
 10
101.431317
 20
648.725571
 30
0.0
 10
102.542223
 20
646.155286
 30
0.0
 10
103.261046
 20
644.049080
 30
0.0
 10
103.587786
 20
642.406953
 30
0.0
  0
SPLINE
  5
12d
100
AcDbEntity
  8
newlayer
 62
7
100
AcDbSpline
 70
8
 71
3
 72
8
 73
4
 74
0
 40
0
 40
0
 40
0
 40
0
 40
1
 40
1
 40
1
 40
1
 10
103.587786
 20
642.406953
 30
0.0
 10
104.175912
 20
639.408287
 30
0.0
 10
104.862059
 20
636.588112
 30
0.0
 10
105.646225
 20
633.946431
 30
0.0
  0
SPLINE
  5
12e
100
AcDbEntity
  8
newlayer
 62
7
100
AcDbSpline
 70
8
 71
3
 72
8
 73
4
 74
0
 40
0
 40
0
 40
0
 40
0
 40
1
 40
1
 40
1
 40
1
 10
105.646225
 20
633.946431
 30
0.0
 10
106.038311
 20
632.661288
 30
0.0
 10
106.789808
 20
630.912065
 30
0.0
 10
107.900714
 20
628.698764
 30
0.0
  0
SPLINE
  5
12f
100
AcDbEntity
  8
newlayer
 62
7
100
AcDbSpline
 70
8
 71
3
 72
8
 73
4
 74
0
 40
0
 40
0
 40
0
 40
0
 40
1
 40
1
 40
1
 40
1
 10
107.900714
 20
628.698764
 30
0.0
 10
108.750233
 20
627.056636
 30
0.0
 10
109.109643
 20
626.021383
 30
0.0
 10
108.978943
 20
625.593007
 30
0.0
  0
SPLINE
  5
130
100
AcDbEntity
  8
newlayer
 62
7
100
AcDbSpline
 70
8
 71
3
 72
8
 73
4
 74
0
 40
0
 40
0
 40
0
 40
0
 40
1
 40
1
 40
1
 40
1
 10
108.978943
 20
625.593007
 30
0.0
 10
109.567070
 20
623.165515
 30
0.0
 10
110.220546
 20
619.774164
 30
0.0
 10
110.939372
 20
615.418953
 30
0.0
  0
SPLINE
  5
131
100
AcDbEntity
  8
newlayer
 62
7
100
AcDbSpline
 70
8
 71
3
 72
8
 73
4
 74
0
 40
0
 40
0
 40
0
 40
0
 40
1
 40
1
 40
1
 40
1
 10
110.939372
 20
615.418953
 30
0.0
 10
111.004718
 20
614.062415
 30
0.0
 10
111.233435
 20
612.241796
 30
0.0
 10
111.625521
 20
609.957097
 30
0.0
  0
SPLINE
  5
132
100
AcDbEntity
  8
newlayer
 62
7
100
AcDbSpline
 70
8
 71
3
 72
8
 73
4
 74
0
 40
0
 40
0
 40
0
 40
0
 40
1
 40
1
 40
1
 40
1
 10
111.625521
 20
609.957097
 30
0.0
 10
111.952255
 20
608.814747
 30
0.0
 10
112.573055
 20
608.243572
 30
0.0
 10
113.487920
 20
608.243572
 30
0.0
  0
SPLINE
  5
133
100
AcDbEntity
  8
newlayer
 62
7
100
AcDbSpline
 70
8
 71
3
 72
8
 73
4
 74
0
 40
0
 40
0
 40
0
 40
0
 40
1
 40
1
 40
1
 40
1
 10
113.487920
 20
608.243572
 30
0.0
 10
114.076047
 20
608.243572
 30
0.0
 10
114.729520
 20
608.457764
 30
0.0
 10
115.448340
 20
608.886146
 30
0.0
  0
LWPOLYLINE
  5
134
100
AcDbEntity
  8
newlayer
 62
7
100
AcDbPolyline
 90
2
 70
0
 10
99.274858
 20
663.825998
 30
0.0
 10
101.431317
 20
648.725571
 30
0.0
  0
SPLINE
  5
135
100
AcDbEntity
  8
newlayer
 62
7
100
AcDbSpline
 70
8
 71
3
 72
8
 73
4
 74
0
 40
0
 40
0
 40
0
 40
0
 40
1
 40
1
 40
1
 40
1
 10
129.171302
 20
656.329332
 30
0.0
 10
129.955469
 20
657.900062
 30
0.0
 10
130.347552
 20
659.220903
 30
0.0
 10
130.347552
 20
660.291856
 30
0.0
  0
SPLINE
  5
136
100
AcDbEntity
  8
newlayer
 62
7
100
AcDbSpline
 70
8
 71
3
 72
8
 73
4
 74
0
 40
0
 40
0
 40
0
 40
0
 40
1
 40
1
 40
1
 40
1
 10
130.347552
 20
660.291856
 30
0.0
 10
130.347552
 20
661.077221
 30
0.0
 10
130.184183
 20
662.076776
 30
0.0
 10
129.857443
 20
663.290522
 30
0.0
  0
SPLINE
  5
137
100
AcDbEntity
  8
newlayer
 62
7
100
AcDbSpline
 70
8
 71
3
 72
8
 73
4
 74
0
 40
0
 40
0
 40
0
 40
0
 40
1
 40
1
 40
1
 40
1
 10
129.857443
 20
663.290522
 30
0.0
 10
129.661403
 20
664.147284
 30
0.0
 10
129.498036
 20
665.004045
 30
0.0
 10
129.367343
 20
665.860807
 30
0.0
  0
SPLINE
  5
138
100
AcDbEntity
  8
newlayer
 62
7
100
AcDbSpline
 70
8
 71
3
 72
8
 73
4
 74
0
 40
0
 40
0
 40
0
 40
0
 40
1
 40
1
 40
1
 40
1
 10
129.367343
 20
665.860807
 30
0.0
 10
129.105950
 20
667.288744
 30
0.0
 10
128.975253
 20
668.502490
 30
0.0
 10
128.975253
 20
669.502045
 30
0.0
  0
SPLINE
  5
139
100
AcDbEntity
  8
newlayer
 62
7
100
AcDbSpline
 70
8
 71
3
 72
8
 73
4
 74
0
 40
0
 40
0
 40
0
 40
0
 40
1
 40
1
 40
1
 40
1
 10
128.975253
 20
669.502045
 30
0.0
 10
128.975253
 20
671.358362
 30
0.0
 10
129.400013
 20
672.679203
 30
0.0
 10
130.249532
 20
673.464568
 30
0.0
  0
SPLINE
  5
13a
100
AcDbEntity
  8
newlayer
 62
7
100
AcDbSpline
 70
8
 71
3
 72
8
 73
4
 74
0
 40
0
 40
0
 40
0
 40
0
 40
1
 40
1
 40
1
 40
1
 10
130.249532
 20
673.464568
 30
0.0
 10
130.445572
 20
672.322219
 30
0.0
 10
130.674289
 20
671.179870
 30
0.0
 10
130.935682
 20
670.037521
 30
0.0
  0
SPLINE
  5
13b
100
AcDbEntity
  8
newlayer
 62
7
100
AcDbSpline
 70
8
 71
3
 72
8
 73
4
 74
0
 40
0
 40
0
 40
0
 40
0
 40
1
 40
1
 40
1
 40
1
 10
130.935682
 20
670.037521
 30
0.0
 10
131.197069
 20
668.895172
 30
0.0
 10
131.883215
 20
668.395394
 30
0.0
 10
132.994121
 20
668.538188
 30
0.0
  0
SPLINE
  5
13c
100
AcDbEntity
  8
newlayer
 62
7
100
AcDbSpline
 70
8
 71
3
 72
8
 73
4
 74
0
 40
0
 40
0
 40
0
 40
0
 40
1
 40
1
 40
1
 40
1
 10
132.994121
 20
668.538188
 30
0.0
 10
133.647594
 20
668.609585
 30
0.0
 10
133.974331
 20
670.394505
 30
0.0
 10
133.974331
 20
673.892949
 30
0.0
  0
SPLINE
  5
13d
100
AcDbEntity
  8
newlayer
 62
7
100
AcDbSpline
 70
8
 71
3
 72
8
 73
4
 74
0
 40
0
 40
0
 40
0
 40
0
 40
1
 40
1
 40
1
 40
1
 10
133.974331
 20
673.892949
 30
0.0
 10
133.974331
 20
677.248600
 30
0.0
 10
133.778291
 20
679.354805
 30
0.0
 10
133.386210
 20
680.211567
 30
0.0
  0
SPLINE
  5
13e
100
AcDbEntity
  8
newlayer
 62
7
100
AcDbSpline
 70
8
 71
3
 72
8
 73
4
 74
0
 40
0
 40
0
 40
0
 40
0
 40
1
 40
1
 40
1
 40
1
 10
133.386210
 20
680.211567
 30
0.0
 10
134.627810
 20
680.068774
 30
0.0
 10
135.379303
 20
678.926425
 30
0.0
 10
135.640690
 20
676.784520
 30
0.0
  0
SPLINE
  5
13f
100
AcDbEntity
  8
newlayer
 62
7
100
AcDbSpline
 70
8
 71
3
 72
8
 73
4
 74
0
 40
0
 40
0
 40
0
 40
0
 40
1
 40
1
 40
1
 40
1
 10
135.640690
 20
676.784520
 30
0.0
 10
135.771389
 20
674.928203
 30
0.0
 10
135.902086
 20
673.071886
 30
0.0
 10
136.032779
 20
671.215568
 30
0.0
  0
SPLINE
  5
140
100
AcDbEntity
  8
newlayer
 62
7
100
AcDbSpline
 70
8
 71
3
 72
8
 73
4
 74
0
 40
0
 40
0
 40
0
 40
0
 40
1
 40
1
 40
1
 40
1
 10
136.032779
 20
671.215568
 30
0.0
 10
135.902086
 20
671.001378
 30
0.0
 10
135.869412
 20
670.715791
 30
0.0
 10
135.934759
 20
670.358807
 30
0.0
  0
SPLINE
  5
141
100
AcDbEntity
  8
newlayer
 62
7
100
AcDbSpline
 70
8
 71
3
 72
8
 73
4
 74
0
 40
0
 40
0
 40
0
 40
0
 40
1
 40
1
 40
1
 40
1
 10
135.934759
 20
670.358807
 30
0.0
 10
135.673366
 20
669.502045
 30
0.0
 10
135.477323
 20
668.145505
 30
0.0
 10
135.346630
 20
666.289188
 30
0.0
  0
SPLINE
  5
142
100
AcDbEntity
  8
newlayer
 62
7
100
AcDbSpline
 70
8
 71
3
 72
8
 73
4
 74
0
 40
0
 40
0
 40
0
 40
0
 40
1
 40
1
 40
1
 40
1
 10
135.346630
 20
666.289188
 30
0.0
 10
135.411976
 20
664.504268
 30
0.0
 10
135.477323
 20
662.719347
 30
0.0
 10
135.542670
 20
660.934427
 30
0.0
  0
SPLINE
  5
143
100
AcDbEntity
  8
newlayer
 62
7
100
AcDbSpline
 70
8
 71
3
 72
8
 73
4
 74
0
 40
0
 40
0
 40
0
 40
0
 40
1
 40
1
 40
1
 40
1
 10
135.542670
 20
660.934427
 30
0.0
 10
135.673369
 20
659.649284
 30
0.0
 10
136.130802
 20
659.078110
 30
0.0
 10
136.914969
 20
659.220903
 30
0.0
  0
SPLINE
  5
144
100
AcDbEntity
  8
newlayer
 62
7
100
AcDbSpline
 70
8
 71
3
 72
8
 73
4
 74
0
 40
0
 40
0
 40
0
 40
0
 40
1
 40
1
 40
1
 40
1
 10
136.914969
 20
659.220903
 30
0.0
 10
137.764488
 20
659.363697
 30
0.0
 10
137.960531
 20
660.684538
 30
0.0
 10
137.503098
 20
663.183427
 30
0.0
  0
SPLINE
  5
145
100
AcDbEntity
  8
newlayer
 62
7
100
AcDbSpline
 70
8
 71
3
 72
8
 73
4
 74
0
 40
0
 40
0
 40
0
 40
0
 40
1
 40
1
 40
1
 40
1
 10
137.503098
 20
663.183427
 30
0.0
 10
136.718926
 20
666.967458
 30
0.0
 10
136.620903
 20
671.394060
 30
0.0
 10
137.209029
 20
676.463235
 30
0.0
  0
SPLINE
  5
146
100
AcDbEntity
  8
newlayer
 62
7
100
AcDbSpline
 70
8
 71
3
 72
8
 73
4
 74
0
 40
0
 40
0
 40
0
 40
0
 40
1
 40
1
 40
1
 40
1
 10
137.209029
 20
676.463235
 30
0.0
 10
137.535769
 20
679.390504
 30
0.0
 10
138.646675
 20
681.389615
 30
0.0
 10
140.541747
 20
682.460567
 30
0.0
  0
SPLINE
  5
147
100
AcDbEntity
  8
newlayer
 62
7
100
AcDbSpline
 70
8
 71
3
 72
8
 73
4
 74
0
 40
0
 40
0
 40
0
 40
0
 40
1
 40
1
 40
1
 40
1
 10
140.541747
 20
682.460567
 30
0.0
 10
139.430841
 20
678.962123
 30
0.0
 10
138.875388
 20
676.070552
 30
0.0
 10
138.875388
 20
673.785853
 30
0.0
  0
SPLINE
  5
148
100
AcDbEntity
  8
newlayer
 62
7
100
AcDbSpline
 70
8
 71
3
 72
8
 73
4
 74
0
 40
0
 40
0
 40
0
 40
0
 40
1
 40
1
 40
1
 40
1
 10
138.875388
 20
673.785853
 30
0.0
 10
138.875388
 20
672.072330
 30
0.0
 10
139.234801
 20
671.072775
 30
0.0
 10
139.953627
 20
670.787187
 30
0.0
  0
SPLINE
  5
149
100
AcDbEntity
  8
newlayer
 62
7
100
AcDbSpline
 70
8
 71
3
 72
8
 73
4
 74
0
 40
0
 40
0
 40
0
 40
0
 40
1
 40
1
 40
1
 40
1
 10
139.953627
 20
670.787187
 30
0.0
 10
141.064533
 20
670.715790
 30
0.0
 10
141.946723
 20
671.608251
 30
0.0
 10
142.600196
 20
673.464568
 30
0.0
  0
SPLINE
  5
14a
100
AcDbEntity
  8
newlayer
 62
7
100
AcDbSpline
 70
8
 71
3
 72
8
 73
4
 74
0
 40
0
 40
0
 40
0
 40
0
 40
1
 40
1
 40
1
 40
1
 10
142.600196
 20
673.464568
 30
0.0
 10
143.319016
 20
675.320885
 30
0.0
 10
143.678426
 20
677.355694
 30
0.0
 10
143.678426
 20
679.568996
 30
0.0
  0
SPLINE
  5
14b
100
AcDbEntity
  8
newlayer
 62
7
100
AcDbSpline
 70
8
 71
3
 72
8
 73
4
 74
0
 40
0
 40
0
 40
0
 40
0
 40
1
 40
1
 40
1
 40
1
 10
143.678426
 20
679.568996
 30
0.0
 10
143.678426
 20
680.639948
 30
0.0
 10
143.580405
 20
681.568107
 30
0.0
 10
143.384365
 20
682.353472
 30
0.0
  0
LWPOLYLINE
  5
14c
100
AcDbEntity
  8
newlayer
 62
7
100
AcDbPolyline
 90
5
 70
0
 10
115.448340
 20
608.886146
 30
0.0
 10
120.643458
 20
622.594334
 30
0.0
 10
121.329607
 20
628.805859
 30
0.0
 10
123.486075
 20
635.445763
 30
0.0
 10
129.171302
 20
656.329332
 30
0.0
  0
SPLINE
  5
14d
100
AcDbEntity
  8
newlayer
 62
7
100
AcDbSpline
 70
8
 71
3
 72
8
 73
4
 74
0
 40
0
 40
0
 40
0
 40
0
 40
1
 40
1
 40
1
 40
1
 10
188.866172
 20
666.717569
 30
0.0
 10
190.238465
 20
666.503379
 30
0.0
 10
191.414718
 20
667.538632
 30
0.0
 10
192.394930
 20
669.823331
 30
0.0
  0
LWPOLYLINE
  5
14e
100
AcDbEntity
  8
newlayer
 62
7
100
AcDbPolyline
 90
1
 70
1
 10
143.384365
 20
682.353472
 30
0.0
  0
SPLINE
  5
14f
100
AcDbEntity
  8
newlayer
 62
7
100
AcDbSpline
 70
8
 71
3
 72
8
 73
4
 74
0
 40
0
 40
0
 40
0
 40
0
 40
1
 40
1
 40
1
 40
1
 10
193.767220
 20
674.000044
 30
0.0
 10
194.290000
 20
673.143283
 30
0.0
 10
194.551390
 20
672.000934
 30
0.0
 10
194.551390
 20
670.572997
 30
0.0
  0
SPLINE
  5
150
100
AcDbEntity
  8
newlayer
 62
7
100
AcDbSpline
 70
8
 71
3
 72
8
 73
4
 74
0
 40
0
 40
0
 40
0
 40
0
 40
1
 40
1
 40
1
 40
1
 10
194.551390
 20
670.572997
 30
0.0
 10
194.551390
 20
669.859029
 30
0.0
 10
194.388023
 20
668.466791
 30
0.0
 10
194.061290
 20
666.396283
 30
0.0
  0
SPLINE
  5
151
100
AcDbEntity
  8
newlayer
 62
7
100
AcDbSpline
 70
8
 71
3
 72
8
 73
4
 74
0
 40
0
 40
0
 40
0
 40
0
 40
1
 40
1
 40
1
 40
1
 10
194.061290
 20
666.396283
 30
0.0
 10
193.799897
 20
664.397172
 30
0.0
 10
193.701874
 20
662.826442
 30
0.0
 10
193.767220
 20
661.684093
 30
0.0
  0
LWPOLYLINE
  5
152
100
AcDbEntity
  8
newlayer
 62
7
100
AcDbPolyline
 90
2
 70
0
 10
192.394930
 20
669.823331
 30
0.0
 10
193.767220
 20
674.000044
 30
0.0
  0
SPLINE
  5
153
100
AcDbEntity
  8
newlayer
 62
7
100
AcDbSpline
 70
8
 71
3
 72
8
 73
4
 74
0
 40
0
 40
0
 40
0
 40
0
 40
1
 40
1
 40
1
 40
1
 10
162.792546
 20
637.480573
 30
0.0
 10
165.079705
 20
636.052637
 30
0.0
 10
167.889643
 20
635.338668
 30
0.0
 10
171.222362
 20
635.338668
 30
0.0
  0
SPLINE
  5
154
100
AcDbEntity
  8
newlayer
 62
7
100
AcDbSpline
 70
8
 71
3
 72
8
 73
4
 74
0
 40
0
 40
0
 40
0
 40
0
 40
1
 40
1
 40
1
 40
1
 10
171.222362
 20
635.338668
 30
0.0
 10
171.875835
 20
635.338668
 30
0.0
 10
172.463961
 20
635.410065
 30
0.0
 10
172.986741
 20
635.552858
 30
0.0
  0
SPLINE
  5
155
100
AcDbEntity
  8
newlayer
 62
7
100
AcDbSpline
 70
8
 71
3
 72
8
 73
4
 74
0
 40
0
 40
0
 40
0
 40
0
 40
1
 40
1
 40
1
 40
1
 10
172.986741
 20
635.552858
 30
0.0
 10
173.117440
 20
635.838446
 30
0.0
 10
173.901610
 20
636.516716
 30
0.0
 10
175.339250
 20
637.587668
 30
0.0
  0
SPLINE
  5
156
100
AcDbEntity
  8
newlayer
 62
7
100
AcDbSpline
 70
8
 71
3
 72
8
 73
4
 74
0
 40
0
 40
0
 40
0
 40
0
 40
1
 40
1
 40
1
 40
1
 10
175.339250
 20
637.587668
 30
0.0
 10
175.862029
 20
636.588112
 30
0.0
 10
176.156093
 20
636.052636
 30
0.0
 10
176.221439
 20
635.981240
 30
0.0
  0
SPLINE
  5
157
100
AcDbEntity
  8
newlayer
 62
7
100
AcDbSpline
 70
8
 71
3
 72
8
 73
4
 74
0
 40
0
 40
0
 40
0
 40
0
 40
1
 40
1
 40
1
 40
1
 10
176.221439
 20
635.981240
 30
0.0
 10
176.678872
 20
635.410065
 30
0.0
 10
177.332348
 20
635.088780
 30
0.0
 10
178.181867
 20
635.017382
 30
0.0
  0
SPLINE
  5
158
100
AcDbEntity
  8
newlayer
 62
7
100
AcDbSpline
 70
8
 71
3
 72
8
 73
4
 74
0
 40
0
 40
0
 40
0
 40
0
 40
1
 40
1
 40
1
 40
1
 10
178.181867
 20
635.017382
 30
0.0
 10
178.835341
 20
634.945985
 30
0.0
 10
179.488814
 20
635.374367
 30
0.0
 10
180.142287
 20
636.302526
 30
0.0
  0
LWPOLYLINE
  5
159
100
AcDbEntity
  8
newlayer
 62
7
100
AcDbPolyline
 90
8
 70
0
 10
193.767220
 20
661.684093
 30
0.0
 10
189.552313
 20
661.898283
 30
0.0
 10
189.650333
 20
661.684093
 30
0.0
 10
182.494795
 20
662.112475
 30
0.0
 10
176.123419
 20
662.112475
 30
0.0
 10
163.380675
 20
661.684093
 30
0.0
 10
163.282655
 20
650.117809
 30
0.0
 10
162.792546
 20
637.480573
 30
0.0
  0
SPLINE
  5
15a
100
AcDbEntity
  8
newlayer
 62
7
100
AcDbSpline
 70
8
 71
3
 72
8
 73
4
 74
0
 40
0
 40
0
 40
0
 40
0
 40
1
 40
1
 40
1
 40
1
 10
181.612606
 20
639.301192
 30
0.0
 10
181.612606
 20
639.229795
 30
0.0
 10
181.841322
 20
638.694318
 30
0.0
 10
182.298755
 20
637.694763
 30
0.0
  0
SPLINE
  5
15b
100
AcDbEntity
  8
newlayer
 62
7
100
AcDbSpline
 70
8
 71
3
 72
8
 73
4
 74
0
 40
0
 40
0
 40
0
 40
0
 40
1
 40
1
 40
1
 40
1
 10
182.298755
 20
637.694763
 30
0.0
 10
182.756182
 20
636.766605
 30
0.0
 10
183.082919
 20
636.409621
 30
0.0
 10
183.278965
 20
636.623811
 30
0.0
  0
SPLINE
  5
15c
100
AcDbEntity
  8
newlayer
 62
7
100
AcDbSpline
 70
8
 71
3
 72
8
 73
4
 74
0
 40
0
 40
0
 40
0
 40
0
 40
1
 40
1
 40
1
 40
1
 10
183.278965
 20
636.623811
 30
0.0
 10
183.671051
 20
637.123588
 30
0.0
 10
183.932441
 20
637.587668
 30
0.0
 10
184.063135
 20
638.016049
 30
0.0
  0
SPLINE
  5
15d
100
AcDbEntity
  8
newlayer
 62
7
100
AcDbSpline
 70
8
 71
3
 72
8
 73
4
 74
0
 40
0
 40
0
 40
0
 40
0
 40
1
 40
1
 40
1
 40
1
 10
184.063135
 20
638.016049
 30
0.0
 10
184.193828
 20
638.515827
 30
0.0
 10
184.324521
 20
638.872811
 30
0.0
 10
184.455215
 20
639.087001
 30
0.0
  0
LWPOLYLINE
  5
15e
100
AcDbEntity
  8
newlayer
 62
7
100
AcDbPolyline
 90
3
 70
0
 10
180.142287
 20
636.302526
 30
0.0
 10
180.926456
 20
637.373477
 30
0.0
 10
181.612606
 20
639.301192
 30
0.0
  0
SPLINE
  5
15f
100
AcDbEntity
  8
newlayer
 62
7
100
AcDbSpline
 70
8
 71
3
 72
8
 73
4
 74
0
 40
0
 40
0
 40
0
 40
0
 40
1
 40
1
 40
1
 40
1
 10
185.827514
 20
630.198101
 30
0.0
 10
176.874918
 20
630.198101
 30
0.0
 10
172.398620
 20
630.126702
 30
0.0
 10
172.398620
 20
629.983903
 30
0.0
  0
SPLINE
  5
160
100
AcDbEntity
  8
newlayer
 62
7
100
AcDbSpline
 70
8
 71
3
 72
8
 73
4
 74
0
 40
0
 40
0
 40
0
 40
0
 40
1
 40
1
 40
1
 40
1
 10
172.398620
 20
629.983903
 30
0.0
 10
172.398620
 20
629.912507
 30
0.0
 10
169.131249
 20
629.912507
 30
0.0
 10
162.596506
 20
629.983903
 30
0.0
  0
LWPOLYLINE
  5
161
100
AcDbEntity
  8
newlayer
 62
7
100
AcDbPolyline
 90
3
 70
0
 10
184.455215
 20
639.087001
 30
0.0
 10
186.807724
 20
642.406953
 30
0.0
 10
185.827514
 20
630.198101
 30
0.0
  0
SPLINE
  5
162
100
AcDbEntity
  8
newlayer
 62
7
100
AcDbSpline
 70
8
 71
3
 72
8
 73
4
 74
0
 40
0
 40
0
 40
0
 40
0
 40
1
 40
1
 40
1
 40
1
 10
162.008376
 20
601.496577
 30
0.0
 10
164.164842
 20
600.068643
 30
0.0
 10
168.216383
 20
599.640263
 30
0.0
 10
174.163000
 20
600.211438
 30
0.0
  0
SPLINE
  5
163
100
AcDbEntity
  8
newlayer
 62
7
100
AcDbSpline
 70
8
 71
3
 72
8
 73
4
 74
0
 40
0
 40
0
 40
0
 40
0
 40
1
 40
1
 40
1
 40
1
 10
174.163000
 20
600.211438
 30
0.0
 10
174.555086
 20
600.140042
 30
0.0
 10
175.208559
 20
600.068643
 30
0.0
 10
176.123419
 20
599.997241
 30
0.0
  0
SPLINE
  5
164
100
AcDbEntity
  8
newlayer
 62
7
100
AcDbSpline
 70
8
 71
3
 72
8
 73
4
 74
0
 40
0
 40
0
 40
0
 40
0
 40
1
 40
1
 40
1
 40
1
 10
176.123419
 20
599.997241
 30
0.0
 10
177.495718
 20
599.854449
 30
0.0
 10
178.639297
 20
599.890150
 30
0.0
 10
179.554158
 20
600.104344
 30
0.0
  0
SPLINE
  5
165
100
AcDbEntity
  8
newlayer
 62
7
100
AcDbSpline
 70
8
 71
3
 72
8
 73
4
 74
0
 40
0
 40
0
 40
0
 40
0
 40
1
 40
1
 40
1
 40
1
 10
179.554158
 20
600.104344
 30
0.0
 10
182.168056
 20
600.675513
 30
0.0
 10
183.769068
 20
600.461321
 30
0.0
 10
184.357195
 20
599.461770
 30
0.0
  0
SPLINE
  5
166
100
AcDbEntity
  8
newlayer
 62
7
100
AcDbSpline
 70
8
 71
3
 72
8
 73
4
 74
0
 40
0
 40
0
 40
0
 40
0
 40
1
 40
1
 40
1
 40
1
 10
184.357195
 20
599.461770
 30
0.0
 10
185.664141
 20
599.461770
 30
0.0
 10
187.265154
 20
599.533166
 30
0.0
 10
189.160232
 20
599.675958
 30
0.0
  0
SPLINE
  5
167
100
AcDbEntity
  8
newlayer
 62
7
100
AcDbSpline
 70
8
 71
3
 72
8
 73
4
 74
0
 40
0
 40
0
 40
0
 40
0
 40
1
 40
1
 40
1
 40
1
 10
189.160232
 20
599.675958
 30
0.0
 10
190.205791
 20
599.818750
 30
0.0
 10
191.349371
 20
600.604117
 30
0.0
 10
192.590971
 20
602.032057
 30
0.0
  0
SPLINE
  5
168
100
AcDbEntity
  8
newlayer
 62
7
100
AcDbSpline
 70
8
 71
3
 72
8
 73
4
 74
0
 40
0
 40
0
 40
0
 40
0
 40
1
 40
1
 40
1
 40
1
 10
192.590971
 20
602.032057
 30
0.0
 10
194.159310
 20
602.674628
 30
0.0
 10
195.466259
 20
602.781722
 30
0.0
 10
196.511818
 20
602.353339
 30
0.0
  0
LWPOLYLINE
  5
169
100
AcDbEntity
  8
newlayer
 62
7
100
AcDbPolyline
 90
3
 70
0
 10
162.596506
 20
629.983903
 30
0.0
 10
161.224207
 20
611.884810
 30
0.0
 10
162.008376
 20
601.496577
 30
0.0
  0
SPLINE
  5
16a
100
AcDbEntity
  8
newlayer
 62
7
100
AcDbSpline
 70
8
 71
3
 72
8
 73
4
 74
0
 40
0
 40
0
 40
0
 40
0
 40
1
 40
1
 40
1
 40
1
 10
152.696371
 20
656.971903
 30
0.0
 10
152.108244
 20
658.756824
 30
0.0
 10
151.814181
 20
661.362808
 30
0.0
 10
151.814181
 20
664.789855
 30
0.0
  0
SPLINE
  5
16b
100
AcDbEntity
  8
newlayer
 62
7
100
AcDbSpline
 70
8
 71
3
 72
8
 73
4
 74
0
 40
0
 40
0
 40
0
 40
0
 40
1
 40
1
 40
1
 40
1
 10
151.814181
 20
664.789855
 30
0.0
 10
151.814181
 20
669.359251
 30
0.0
 10
152.533004
 20
672.393616
 30
0.0
 10
153.970650
 20
673.892949
 30
0.0
  0
SPLINE
  5
16c
100
AcDbEntity
  8
newlayer
 62
7
100
AcDbSpline
 70
8
 71
3
 72
8
 73
4
 74
0
 40
0
 40
0
 40
0
 40
0
 40
1
 40
1
 40
1
 40
1
 10
153.970650
 20
673.892949
 30
0.0
 10
154.428077
 20
669.609140
 30
0.0
 10
155.146897
 20
667.467236
 30
0.0
 10
156.127109
 20
667.467236
 30
0.0
  0
SPLINE
  5
16d
100
AcDbEntity
  8
newlayer
 62
7
100
AcDbSpline
 70
8
 71
3
 72
8
 73
4
 74
0
 40
0
 40
0
 40
0
 40
0
 40
1
 40
1
 40
1
 40
1
 10
156.127109
 20
667.467236
 30
0.0
 10
156.388502
 20
667.467236
 30
0.0
 10
156.649892
 20
667.502934
 30
0.0
 10
156.911279
 20
667.574331
 30
0.0
  0
SPLINE
  5
16e
100
AcDbEntity
  8
newlayer
 62
7
100
AcDbSpline
 70
8
 71
3
 72
8
 73
4
 74
0
 40
0
 40
0
 40
0
 40
0
 40
1
 40
1
 40
1
 40
1
 10
156.911279
 20
667.574331
 30
0.0
 10
157.238018
 20
667.717124
 30
0.0
 10
157.564755
 20
670.073219
 30
0.0
 10
157.891488
 20
674.642616
 30
0.0
  0
SPLINE
  5
16f
100
AcDbEntity
  8
newlayer
 62
7
100
AcDbSpline
 70
8
 71
3
 72
8
 73
4
 74
0
 40
0
 40
0
 40
0
 40
0
 40
1
 40
1
 40
1
 40
1
 10
157.891488
 20
674.642616
 30
0.0
 10
158.218228
 20
678.997822
 30
0.0
 10
159.165767
 20
681.175424
 30
0.0
 10
160.734106
 20
681.175424
 30
0.0
  0
SPLINE
  5
170
100
AcDbEntity
  8
newlayer
 62
7
100
AcDbSpline
 70
8
 71
3
 72
8
 73
4
 74
0
 40
0
 40
0
 40
0
 40
0
 40
1
 40
1
 40
1
 40
1
 10
160.734106
 20
681.175424
 30
0.0
 10
160.472714
 20
679.533298
 30
0.0
 10
160.342017
 20
677.855472
 30
0.0
 10
160.342017
 20
676.141948
 30
0.0
  0
SPLINE
  5
171
100
AcDbEntity
  8
newlayer
 62
7
100
AcDbSpline
 70
8
 71
3
 72
8
 73
4
 74
0
 40
0
 40
0
 40
0
 40
0
 40
1
 40
1
 40
1
 40
1
 10
160.342017
 20
676.141948
 30
0.0
 10
160.342017
 20
671.144172
 30
0.0
 10
161.648966
 20
668.645283
 30
0.0
 10
164.262865
 20
668.645283
 30
0.0
  0
SPLINE
  5
172
100
AcDbEntity
  8
newlayer
 62
7
100
AcDbSpline
 70
8
 71
3
 72
8
 73
4
 74
0
 40
0
 40
0
 40
0
 40
0
 40
1
 40
1
 40
1
 40
1
 10
164.262865
 20
668.645283
 30
0.0
 10
164.589604
 20
668.645283
 30
0.0
 10
164.916341
 20
668.680982
 30
0.0
 10
165.243075
 20
668.752378
 30
0.0
  0
SPLINE
  5
173
100
AcDbEntity
  8
newlayer
 62
7
100
AcDbSpline
 70
8
 71
3
 72
8
 73
4
 74
0
 40
0
 40
0
 40
0
 40
0
 40
1
 40
1
 40
1
 40
1
 10
165.243075
 20
668.752378
 30
0.0
 10
165.439115
 20
674.249933
 30
0.0
 10
166.386654
 20
677.248600
 30
0.0
 10
168.085692
 20
677.748377
 30
0.0
  0
SPLINE
  5
174
100
AcDbEntity
  8
newlayer
 62
7
100
AcDbSpline
 70
8
 71
3
 72
8
 73
4
 74
0
 40
0
 40
0
 40
0
 40
0
 40
1
 40
1
 40
1
 40
1
 10
168.085692
 20
677.748377
 30
0.0
 10
167.758953
 20
675.677870
 30
0.0
 10
167.758953
 20
673.678759
 30
0.0
 10
168.085692
 20
671.751045
 30
0.0
  0
SPLINE
  5
175
100
AcDbEntity
  8
newlayer
 62
7
100
AcDbSpline
 70
8
 71
3
 72
8
 73
4
 74
0
 40
0
 40
0
 40
0
 40
0
 40
1
 40
1
 40
1
 40
1
 10
168.085692
 20
671.751045
 30
0.0
 10
168.673819
 20
669.537743
 30
0.0
 10
169.359965
 20
668.431092
 30
0.0
 10
170.144132
 20
668.431092
 30
0.0
  0
SPLINE
  5
176
100
AcDbEntity
  8
newlayer
 62
7
100
AcDbSpline
 70
8
 71
3
 72
8
 73
4
 74
0
 40
0
 40
0
 40
0
 40
0
 40
1
 40
1
 40
1
 40
1
 10
170.144132
 20
668.431092
 30
0.0
 10
170.928299
 20
668.431092
 30
0.0
 10
171.647121
 20
669.537743
 30
0.0
 10
172.300600
 20
671.751045
 30
0.0
  0
SPLINE
  5
177
100
AcDbEntity
  8
newlayer
 62
7
100
AcDbSpline
 70
8
 71
3
 72
8
 73
4
 74
0
 40
0
 40
0
 40
0
 40
0
 40
1
 40
1
 40
1
 40
1
 10
172.300600
 20
671.751045
 30
0.0
 10
173.019420
 20
673.964346
 30
0.0
 10
173.378830
 20
676.498933
 30
0.0
 10
173.378830
 20
679.354806
 30
0.0
  0
SPLINE
  5
178
100
AcDbEntity
  8
newlayer
 62
7
100
AcDbSpline
 70
8
 71
3
 72
8
 73
4
 74
0
 40
0
 40
0
 40
0
 40
0
 40
1
 40
1
 40
1
 40
1
 10
173.378830
 20
679.354806
 30
0.0
 10
173.378830
 20
680.425758
 30
0.0
 10
173.313483
 20
681.425313
 30
0.0
 10
173.182790
 20
682.353472
 30
0.0
  0
SPLINE
  5
179
100
AcDbEntity
  8
newlayer
 62
7
100
AcDbSpline
 70
8
 71
3
 72
8
 73
4
 74
0
 40
0
 40
0
 40
0
 40
0
 40
1
 40
1
 40
1
 40
1
 10
173.182790
 20
682.353472
 30
0.0
 10
174.424390
 20
681.925091
 30
0.0
 10
175.045189
 20
680.390059
 30
0.0
 10
175.045189
 20
677.748377
 30
0.0
  0
SPLINE
  5
17a
100
AcDbEntity
  8
newlayer
 62
7
100
AcDbSpline
 70
8
 71
3
 72
8
 73
4
 74
0
 40
0
 40
0
 40
0
 40
0
 40
1
 40
1
 40
1
 40
1
 10
175.045189
 20
677.748377
 30
0.0
 10
175.045189
 20
676.820219
 30
0.0
 10
174.947169
 20
675.356584
 30
0.0
 10
174.751129
 20
673.357473
 30
0.0
  0
SPLINE
  5
17b
100
AcDbEntity
  8
newlayer
 62
7
100
AcDbSpline
 70
8
 71
3
 72
8
 73
4
 74
0
 40
0
 40
0
 40
0
 40
0
 40
1
 40
1
 40
1
 40
1
 10
174.751129
 20
673.357473
 30
0.0
 10
174.555083
 20
671.429759
 30
0.0
 10
174.457060
 20
670.073220
 30
0.0
 10
174.457060
 20
669.287855
 30
0.0
  0
SPLINE
  5
17c
100
AcDbEntity
  8
newlayer
 62
7
100
AcDbSpline
 70
8
 71
3
 72
8
 73
4
 74
0
 40
0
 40
0
 40
0
 40
0
 40
1
 40
1
 40
1
 40
1
 10
174.457060
 20
669.287855
 30
0.0
 10
174.457060
 20
667.788521
 30
0.0
 10
174.783797
 20
666.931760
 30
0.0
 10
175.437270
 20
666.717569
 30
0.0
  0
SPLINE
  5
17d
100
AcDbEntity
  8
newlayer
 62
7
100
AcDbSpline
 70
8
 71
3
 72
8
 73
4
 74
0
 40
0
 40
0
 40
0
 40
0
 40
1
 40
1
 40
1
 40
1
 10
175.437270
 20
666.717569
 30
0.0
 10
175.960049
 20
666.574775
 30
0.0
 10
176.711546
 20
667.824220
 30
0.0
 10
177.691758
 20
670.465902
 30
0.0
  0
SPLINE
  5
17e
100
AcDbEntity
  8
newlayer
 62
7
100
AcDbSpline
 70
8
 71
3
 72
8
 73
4
 74
0
 40
0
 40
0
 40
0
 40
0
 40
1
 40
1
 40
1
 40
1
 10
177.691758
 20
670.465902
 30
0.0
 10
178.671971
 20
673.178981
 30
0.0
 10
179.456140
 20
674.428425
 30
0.0
 10
180.044267
 20
674.214235
 30
0.0
  0
SPLINE
  5
17f
100
AcDbEntity
  8
newlayer
 62
7
100
AcDbSpline
 70
8
 71
3
 72
8
 73
4
 74
0
 40
0
 40
0
 40
0
 40
0
 40
1
 40
1
 40
1
 40
1
 10
180.044267
 20
674.214235
 30
0.0
 10
179.652181
 20
672.714901
 30
0.0
 10
179.456137
 20
671.251267
 30
0.0
 10
179.456137
 20
669.823331
 30
0.0
  0
SPLINE
  5
180
100
AcDbEntity
  8
newlayer
 62
7
100
AcDbSpline
 70
8
 71
3
 72
8
 73
4
 74
0
 40
0
 40
0
 40
0
 40
0
 40
1
 40
1
 40
1
 40
1
 10
179.456137
 20
669.823331
 30
0.0
 10
179.456137
 20
666.681871
 30
0.0
 10
180.305654
 20
665.075442
 30
0.0
 10
182.004686
 20
665.004046
 30
0.0
  0
SPLINE
  5
181
100
AcDbEntity
  8
newlayer
 62
7
100
AcDbSpline
 70
8
 71
3
 72
8
 73
4
 74
0
 40
0
 40
0
 40
0
 40
0
 40
1
 40
1
 40
1
 40
1
 10
182.004686
 20
665.004046
 30
0.0
 10
184.422544
 20
664.932648
 30
0.0
 10
185.696820
 20
666.574775
 30
0.0
 10
185.827514
 20
669.930426
 30
0.0
  0
SPLINE
  5
182
100
AcDbEntity
  8
newlayer
 62
7
100
AcDbSpline
 70
8
 71
3
 72
8
 73
4
 74
0
 40
0
 40
0
 40
0
 40
0
 40
1
 40
1
 40
1
 40
1
 10
185.827514
 20
669.930426
 30
0.0
 10
185.827514
 20
671.786743
 30
0.0
 10
185.533451
 20
674.285632
 30
0.0
 10
184.945324
 20
677.427091
 30
0.0
  0
SPLINE
  5
183
100
AcDbEntity
  8
newlayer
 62
7
100
AcDbSpline
 70
8
 71
3
 72
8
 73
4
 74
0
 40
0
 40
0
 40
0
 40
0
 40
1
 40
1
 40
1
 40
1
 10
184.945324
 20
677.427091
 30
0.0
 10
186.644357
 20
676.141948
 30
0.0
 10
187.755263
 20
674.714012
 30
0.0
 10
188.278042
 20
673.143282
 30
0.0
  0
SPLINE
  5
184
100
AcDbEntity
  8
newlayer
 62
7
100
AcDbSpline
 70
8
 71
3
 72
8
 73
4
 74
0
 40
0
 40
0
 40
0
 40
0
 40
1
 40
1
 40
1
 40
1
 10
188.278042
 20
673.143282
 30
0.0
 10
188.866169
 20
671.643949
 30
0.0
 10
189.062212
 20
669.502045
 30
0.0
 10
188.866172
 20
666.717569
 30
0.0
  0
LWPOLYLINE
  5
185
100
AcDbEntity
  8
newlayer
 62
7
100
AcDbPolyline
 90
9
 70
0
 10
196.511818
 20
602.353339
 30
0.0
 10
196.413798
 20
597.426963
 30
0.0
 10
169.850072
 20
597.105671
 30
0.0
 10
156.715239
 20
597.426963
 30
0.0
 10
156.519198
 20
603.638478
 30
0.0
 10
155.538980
 20
618.524720
 30
0.0
 10
154.264710
 20
635.338668
 30
0.0
 10
154.068670
 20
645.512715
 30
0.0
 10
152.696371
 20
656.971903
 30
0.0
  0
SPLINE
  5
186
100
AcDbEntity
  8
newlayer
 62
7
100
AcDbSpline
 70
8
 71
3
 72
8
 73
4
 74
0
 40
0
 40
0
 40
0
 40
0
 40
1
 40
1
 40
1
 40
1
 10
208.078312
 20
673.357473
 30
0.0
 10
208.339699
 20
673.928647
 30
0.0
 10
208.633762
 20
674.535520
 30
0.0
 10
208.960502
 20
675.178092
 30
0.0
  0
SPLINE
  5
187
100
AcDbEntity
  8
newlayer
 62
7
100
AcDbSpline
 70
8
 71
3
 72
8
 73
4
 74
0
 40
0
 40
0
 40
0
 40
0
 40
1
 40
1
 40
1
 40
1
 10
208.960502
 20
675.178092
 30
0.0
 10
209.287236
 20
675.820663
 30
0.0
 10
209.744666
 20
676.213345
 30
0.0
 10
210.332792
 20
676.356139
 30
0.0
  0
SPLINE
  5
188
100
AcDbEntity
  8
newlayer
 62
7
100
AcDbSpline
 70
8
 71
3
 72
8
 73
4
 74
0
 40
0
 40
0
 40
0
 40
0
 40
1
 40
1
 40
1
 40
1
 10
210.332792
 20
676.356139
 30
0.0
 10
210.006058
 20
674.999600
 30
0.0
 10
209.842691
 20
674.107139
 30
0.0
 10
209.842691
 20
673.678758
 30
0.0
  0
SPLINE
  5
189
100
AcDbEntity
  8
newlayer
 62
7
100
AcDbSpline
 70
8
 71
3
 72
8
 73
4
 74
0
 40
0
 40
0
 40
0
 40
0
 40
1
 40
1
 40
1
 40
1
 10
209.842691
 20
673.678758
 30
0.0
 10
209.842691
 20
672.322219
 30
0.0
 10
210.594188
 20
671.786743
 30
0.0
 10
212.097180
 20
672.072330
 30
0.0
  0
SPLINE
  5
18a
100
AcDbEntity
  8
newlayer
 62
7
100
AcDbSpline
 70
8
 71
3
 72
8
 73
4
 74
0
 40
0
 40
0
 40
0
 40
0
 40
1
 40
1
 40
1
 40
1
 10
212.097180
 20
672.072330
 30
0.0
 10
212.750653
 20
672.643505
 30
0.0
 10
213.077390
 20
673.250378
 30
0.0
 10
213.077390
 20
673.892949
 30
0.0
  0
SPLINE
  5
18b
100
AcDbEntity
  8
newlayer
 62
7
100
AcDbSpline
 70
8
 71
3
 72
8
 73
4
 74
0
 40
0
 40
0
 40
0
 40
0
 40
1
 40
1
 40
1
 40
1
 10
213.077390
 20
673.892949
 30
0.0
 10
213.077390
 20
674.392727
 30
0.0
 10
212.816000
 20
675.392282
 30
0.0
 10
212.293220
 20
676.891616
 30
0.0
  0
SPLINE
  5
18c
100
AcDbEntity
  8
newlayer
 62
7
100
AcDbSpline
 70
8
 71
3
 72
8
 73
4
 74
0
 40
0
 40
0
 40
0
 40
0
 40
1
 40
1
 40
1
 40
1
 10
212.293220
 20
676.891616
 30
0.0
 10
214.449686
 20
676.177647
 30
0.0
 10
215.952675
 20
674.464124
 30
0.0
 10
216.802188
 20
671.751045
 30
0.0
  0
SPLINE
  5
18d
100
AcDbEntity
  8
newlayer
 62
7
100
AcDbSpline
 70
8
 71
3
 72
8
 73
4
 74
0
 40
0
 40
0
 40
0
 40
0
 40
1
 40
1
 40
1
 40
1
 10
216.802188
 20
671.751045
 30
0.0
 10
220.526993
 20
671.965235
 30
0.0
 10
223.108218
 20
672.500711
 30
0.0
 10
224.545864
 20
673.357473
 30
0.0
  0
SPLINE
  5
18e
100
AcDbEntity
  8
newlayer
 62
7
100
AcDbSpline
 70
8
 71
3
 72
8
 73
4
 74
0
 40
0
 40
0
 40
0
 40
0
 40
1
 40
1
 40
1
 40
1
 10
224.545864
 20
673.357473
 30
0.0
 10
225.395377
 20
673.857251
 30
0.0
 10
225.950830
 20
674.749711
 30
0.0
 10
226.212223
 20
676.034853
 30
0.0
  0
SPLINE
  5
18f
100
AcDbEntity
  8
newlayer
 62
7
100
AcDbSpline
 70
8
 71
3
 72
8
 73
4
 74
0
 40
0
 40
0
 40
0
 40
0
 40
1
 40
1
 40
1
 40
1
 10
226.212223
 20
676.034853
 30
0.0
 10
226.473610
 20
677.391393
 30
0.0
 10
226.506283
 20
678.390949
 30
0.0
 10
226.310243
 20
679.033520
 30
0.0
  0
SPLINE
  5
190
100
AcDbEntity
  8
newlayer
 62
7
100
AcDbSpline
 70
8
 71
3
 72
8
 73
4
 74
0
 40
0
 40
0
 40
0
 40
0
 40
1
 40
1
 40
1
 40
1
 10
226.310243
 20
679.033520
 30
0.0
 10
226.963716
 20
679.104916
 30
0.0
 10
227.519169
 20
677.819774
 30
0.0
 10
227.976602
 20
675.178092
 30
0.0
  0
SPLINE
  5
191
100
AcDbEntity
  8
newlayer
 62
7
100
AcDbSpline
 70
8
 71
3
 72
8
 73
4
 74
0
 40
0
 40
0
 40
0
 40
0
 40
1
 40
1
 40
1
 40
1
 10
227.976602
 20
675.178092
 30
0.0
 10
228.434035
 20
672.607806
 30
0.0
 10
228.793445
 20
671.322663
 30
0.0
 10
229.054832
 20
671.322663
 30
0.0
  0
SPLINE
  5
192
100
AcDbEntity
  8
newlayer
 62
7
100
AcDbSpline
 70
8
 71
3
 72
8
 73
4
 74
0
 40
0
 40
0
 40
0
 40
0
 40
1
 40
1
 40
1
 40
1
 10
229.054832
 20
671.322663
 30
0.0
 10
229.446918
 20
671.394060
 30
0.0
 10
229.806328
 20
672.286520
 30
0.0
 10
230.133062
 20
674.000044
 30
0.0
  0
SPLINE
  5
193
100
AcDbEntity
  8
newlayer
 62
7
100
AcDbSpline
 70
8
 71
3
 72
8
 73
4
 74
0
 40
0
 40
0
 40
0
 40
0
 40
1
 40
1
 40
1
 40
1
 10
230.133062
 20
674.000044
 30
0.0
 10
230.459801
 20
675.784965
 30
0.0
 10
230.949908
 20
676.677425
 30
0.0
 10
231.603381
 20
676.677425
 30
0.0
  0
SPLINE
  5
194
100
AcDbEntity
  8
newlayer
 62
7
100
AcDbSpline
 70
8
 71
3
 72
8
 73
4
 74
0
 40
0
 40
0
 40
0
 40
0
 40
1
 40
1
 40
1
 40
1
 10
231.603381
 20
676.677425
 30
0.0
 10
231.538034
 20
676.249044
 30
0.0
 10
231.505361
 20
675.820663
 30
0.0
 10
231.505361
 20
675.392282
 30
0.0
  0
SPLINE
  5
195
100
AcDbEntity
  8
newlayer
 62
7
100
AcDbSpline
 70
8
 71
3
 72
8
 73
4
 74
0
 40
0
 40
0
 40
0
 40
0
 40
1
 40
1
 40
1
 40
1
 10
231.505361
 20
675.392282
 30
0.0
 10
231.505361
 20
672.821997
 30
0.0
 10
232.648940
 20
671.322664
 30
0.0
 10
234.936099
 20
670.894283
 30
0.0
  0
SPLINE
  5
196
100
AcDbEntity
  8
newlayer
 62
7
100
AcDbSpline
 70
8
 71
3
 72
8
 73
4
 74
0
 40
0
 40
0
 40
0
 40
0
 40
1
 40
1
 40
1
 40
1
 10
234.936099
 20
670.894283
 30
0.0
 10
235.916312
 20
671.108473
 30
0.0
 10
236.406418
 20
671.893838
 30
0.0
 10
236.406418
 20
673.250377
 30
0.0
  0
SPLINE
  5
197
100
AcDbEntity
  8
newlayer
 62
7
100
AcDbSpline
 70
8
 71
3
 72
8
 73
4
 74
0
 40
0
 40
0
 40
0
 40
0
 40
1
 40
1
 40
1
 40
1
 10
236.406418
 20
673.250377
 30
0.0
 10
236.406418
 20
674.321330
 30
0.0
 10
236.145028
 20
675.356584
 30
0.0
 10
235.622248
 20
676.356139
 30
0.0
  0
SPLINE
  5
198
100
AcDbEntity
  8
newlayer
 62
7
100
AcDbSpline
 70
8
 71
3
 72
8
 73
4
 74
0
 40
0
 40
0
 40
0
 40
0
 40
1
 40
1
 40
1
 40
1
 10
235.622248
 20
676.356139
 30
0.0
 10
236.537114
 20
676.570330
 30
0.0
 10
237.092567
 20
675.927758
 30
0.0
 10
237.288608
 20
674.428425
 30
0.0
  0
SPLINE
  5
199
100
AcDbEntity
  8
newlayer
 62
7
100
AcDbSpline
 70
8
 71
3
 72
8
 73
4
 74
0
 40
0
 40
0
 40
0
 40
0
 40
1
 40
1
 40
1
 40
1
 10
237.288608
 20
674.428425
 30
0.0
 10
237.484648
 20
672.929092
 30
0.0
 10
237.811384
 20
672.250822
 30
0.0
 10
238.268817
 20
672.393616
 30
0.0
  0
SPLINE
  5
19a
100
AcDbEntity
  8
newlayer
 62
7
100
AcDbSpline
 70
8
 71
3
 72
8
 73
4
 74
0
 40
0
 40
0
 40
0
 40
0
 40
1
 40
1
 40
1
 40
1
 10
238.268817
 20
672.393616
 30
0.0
 10
238.856944
 20
672.607807
 30
0.0
 10
239.151007
 20
673.286076
 30
0.0
 10
239.151007
 20
674.428425
 30
0.0
  0
SPLINE
  5
19b
100
AcDbEntity
  8
newlayer
 62
7
100
AcDbSpline
 70
8
 71
3
 72
8
 73
4
 74
0
 40
0
 40
0
 40
0
 40
0
 40
1
 40
1
 40
1
 40
1
 10
239.151007
 20
674.428425
 30
0.0
 10
239.151007
 20
674.714012
 30
0.0
 10
239.118334
 20
675.249488
 30
0.0
 10
239.052987
 20
676.034853
 30
0.0
  0
SPLINE
  5
19c
100
AcDbEntity
  8
newlayer
 62
7
100
AcDbSpline
 70
8
 71
3
 72
8
 73
4
 74
0
 40
0
 40
0
 40
0
 40
0
 40
1
 40
1
 40
1
 40
1
 10
239.052987
 20
676.034853
 30
0.0
 10
238.987640
 20
676.891615
 30
0.0
 10
238.954967
 20
677.534186
 30
0.0
 10
238.954967
 20
677.962567
 30
0.0
  0
SPLINE
  5
19d
100
AcDbEntity
  8
newlayer
 62
7
100
AcDbSpline
 70
8
 71
3
 72
8
 73
4
 74
0
 40
0
 40
0
 40
0
 40
0
 40
1
 40
1
 40
1
 40
1
 10
238.954967
 20
677.962567
 30
0.0
 10
238.954967
 20
679.747488
 30
0.0
 10
239.445073
 20
680.961234
 30
0.0
 10
240.425286
 20
681.603805
 30
0.0
  0
SPLINE
  5
19e
100
AcDbEntity
  8
newlayer
 62
7
100
AcDbSpline
 70
8
 71
3
 72
8
 73
4
 74
0
 40
0
 40
0
 40
0
 40
0
 40
1
 40
1
 40
1
 40
1
 10
240.425286
 20
681.603805
 30
0.0
 10
240.555979
 20
678.033964
 30
0.0
 10
240.784696
 20
675.677869
 30
0.0
 10
241.111435
 20
674.535521
 30
0.0
  0
SPLINE
  5
19f
100
AcDbEntity
  8
newlayer
 62
7
100
AcDbSpline
 70
8
 71
3
 72
8
 73
4
 74
0
 40
0
 40
0
 40
0
 40
0
 40
1
 40
1
 40
1
 40
1
 10
241.111435
 20
674.535521
 30
0.0
 10
241.438169
 20
673.393172
 30
0.0
 10
242.222335
 20
672.857695
 30
0.0
 10
243.463935
 20
672.929092
 30
0.0
  0
SPLINE
  5
1a0
100
AcDbEntity
  8
newlayer
 62
7
100
AcDbSpline
 70
8
 71
3
 72
8
 73
4
 74
0
 40
0
 40
0
 40
0
 40
0
 40
1
 40
1
 40
1
 40
1
 10
243.463935
 20
672.929092
 30
0.0
 10
245.293667
 20
672.786299
 30
0.0
 10
246.208533
 20
675.856362
 30
0.0
 10
246.208533
 20
682.139281
 30
0.0
  0
SPLINE
  5
1a1
100
AcDbEntity
  8
newlayer
 62
7
100
AcDbSpline
 70
8
 71
3
 72
8
 73
4
 74
0
 40
0
 40
0
 40
0
 40
0
 40
1
 40
1
 40
1
 40
1
 10
246.208533
 20
682.139281
 30
0.0
 10
247.515479
 20
680.782742
 30
0.0
 10
248.168952
 20
679.176313
 30
0.0
 10
248.168952
 20
677.319996
 30
0.0
  0
SPLINE
  5
1a2
100
AcDbEntity
  8
newlayer
 62
7
100
AcDbSpline
 70
8
 71
3
 72
8
 73
4
 74
0
 40
0
 40
0
 40
0
 40
0
 40
1
 40
1
 40
1
 40
1
 10
248.168952
 20
677.319996
 30
0.0
 10
248.168952
 20
676.391837
 30
0.0
 10
247.940236
 20
674.749711
 30
0.0
 10
247.482803
 20
672.393616
 30
0.0
  0
SPLINE
  5
1a3
100
AcDbEntity
  8
newlayer
 62
7
100
AcDbSpline
 70
8
 71
3
 72
8
 73
4
 74
0
 40
0
 40
0
 40
0
 40
0
 40
1
 40
1
 40
1
 40
1
 10
247.482803
 20
672.393616
 30
0.0
 10
247.025370
 20
670.108918
 30
0.0
 10
246.796653
 20
668.252600
 30
0.0
 10
246.796653
 20
666.824664
 30
0.0
  0
SPLINE
  5
1a4
100
AcDbEntity
  8
newlayer
 62
7
100
AcDbSpline
 70
8
 71
3
 72
8
 73
4
 74
0
 40
0
 40
0
 40
0
 40
0
 40
1
 40
1
 40
1
 40
1
 10
246.796653
 20
666.824664
 30
0.0
 10
239.020311
 20
667.110251
 30
0.0
 10
234.772729
 20
667.145950
 30
0.0
 10
234.053909
 20
666.931760
 30
0.0
  0
LWPOLYLINE
  5
1a5
100
AcDbEntity
  8
newlayer
 62
7
100
AcDbPolyline
 90
1
 70
1
 10
188.866172
 20
666.717569
 30
0.0
  0
SPLINE
  5
1a6
100
AcDbEntity
  8
newlayer
 62
7
100
AcDbSpline
 70
8
 71
3
 72
8
 73
4
 74
0
 40
0
 40
0
 40
0
 40
0
 40
1
 40
1
 40
1
 40
1
 10
217.488338
 20
597.426963
 30
0.0
 10
217.422991
 20
598.997689
 30
0.0
 10
217.324971
 20
602.638927
 30
0.0
 10
217.194278
 20
608.350676
 30
0.0
  0
LWPOLYLINE
  5
1a7
100
AcDbEntity
  8
newlayer
 62
7
100
AcDbPolyline
 90
7
 70
0
 10
234.053909
 20
666.931760
 30
0.0
 10
227.290453
 20
666.931760
 30
0.0
 10
226.114194
 20
648.404286
 30
0.0
 10
226.310243
 20
635.124478
 30
0.0
 10
226.114194
 20
621.309195
 30
0.0
 10
225.428053
 20
597.534057
 30
0.0
 10
217.488338
 20
597.426963
 30
0.0
  0
SPLINE
  5
1a8
100
AcDbEntity
  8
newlayer
 62
7
100
AcDbSpline
 70
8
 71
3
 72
8
 73
4
 74
0
 40
0
 40
0
 40
0
 40
0
 40
1
 40
1
 40
1
 40
1
 10
217.096257
 20
629.662621
 30
0.0
 10
217.096257
 20
636.016938
 30
0.0
 10
217.194278
 20
639.122699
 30
0.0
 10
217.390318
 20
638.979906
 30
0.0
  0
SPLINE
  5
1a9
100
AcDbEntity
  8
newlayer
 62
7
100
AcDbSpline
 70
8
 71
3
 72
8
 73
4
 74
0
 40
0
 40
0
 40
0
 40
0
 40
1
 40
1
 40
1
 40
1
 10
217.390318
 20
638.979906
 30
0.0
 10
217.128931
 20
641.621588
 30
0.0
 10
216.867541
 20
644.263270
 30
0.0
 10
216.606148
 20
646.904952
 30
0.0
  0
LWPOLYLINE
  5
1aa
100
AcDbEntity
  8
newlayer
 62
7
100
AcDbPolyline
 90
2
 70
0
 10
217.194278
 20
608.350676
 30
0.0
 10
217.096257
 20
629.662621
 30
0.0
  0
SPLINE
  5
1ab
100
AcDbEntity
  8
newlayer
 62
7
100
AcDbSpline
 70
8
 71
3
 72
8
 73
4
 74
0
 40
0
 40
0
 40
0
 40
0
 40
1
 40
1
 40
1
 40
1
 10
212.587280
 20
666.931760
 30
0.0
 10
212.652627
 20
667.360140
 30
0.0
 10
212.391237
 20
667.574331
 30
0.0
 10
211.803111
 20
667.574331
 30
0.0
  0
SPLINE
  5
1ac
100
AcDbEntity
  8
newlayer
 62
7
100
AcDbSpline
 70
8
 71
3
 72
8
 73
4
 74
0
 40
0
 40
0
 40
0
 40
0
 40
1
 40
1
 40
1
 40
1
 10
211.803111
 20
667.574331
 30
0.0
 10
211.541724
 20
667.574331
 30
0.0
 10
210.790231
 20
667.467235
 30
0.0
 10
209.548631
 20
667.253045
 30
0.0
  0
SPLINE
  5
1ad
100
AcDbEntity
  8
newlayer
 62
7
100
AcDbSpline
 70
8
 71
3
 72
8
 73
4
 74
0
 40
0
 40
0
 40
0
 40
0
 40
1
 40
1
 40
1
 40
1
 10
209.548631
 20
667.253045
 30
0.0
 10
208.307026
 20
667.038855
 30
0.0
 10
207.424833
 20
666.967458
 30
0.0
 10
206.902054
 20
667.038855
 30
0.0
  0
SPLINE
  5
1ae
100
AcDbEntity
  8
newlayer
 62
7
100
AcDbSpline
 70
8
 71
3
 72
8
 73
4
 74
0
 40
0
 40
0
 40
0
 40
0
 40
1
 40
1
 40
1
 40
1
 10
206.902054
 20
667.038855
 30
0.0
 10
206.575320
 20
667.038855
 30
0.0
 10
206.183237
 20
667.253045
 30
0.0
 10
205.725804
 20
667.681426
 30
0.0
  0
LWPOLYLINE
  5
1af
100
AcDbEntity
  8
newlayer
 62
7
100
AcDbPolyline
 90
3
 70
0
 10
216.606148
 20
646.904952
 30
0.0
 10
216.312088
 20
666.931760
 30
0.0
 10
212.587280
 20
666.931760
 30
0.0
  0
SPLINE
  5
1b0
100
AcDbEntity
  8
newlayer
 62
7
100
AcDbSpline
 70
8
 71
3
 72
8
 73
4
 74
0
 40
0
 40
0
 40
0
 40
0
 40
1
 40
1
 40
1
 40
1
 10
198.864327
 20
673.036187
 30
0.0
 10
198.929674
 20
674.035743
 30
0.0
 10
199.027694
 20
675.070997
 30
0.0
 10
199.158387
 20
676.141948
 30
0.0
  0
SPLINE
  5
1b1
100
AcDbEntity
  8
newlayer
 62
7
100
AcDbSpline
 70
8
 71
3
 72
8
 73
4
 74
0
 40
0
 40
0
 40
0
 40
0
 40
1
 40
1
 40
1
 40
1
 10
199.158387
 20
676.141948
 30
0.0
 10
199.289081
 20
677.569885
 30
0.0
 10
199.746514
 20
678.319552
 30
0.0
 10
200.530686
 20
678.390948
 30
0.0
  0
SPLINE
  5
1b2
100
AcDbEntity
  8
newlayer
 62
7
100
AcDbSpline
 70
8
 71
3
 72
8
 73
4
 74
0
 40
0
 40
0
 40
0
 40
0
 40
1
 40
1
 40
1
 40
1
 10
200.530686
 20
678.390948
 30
0.0
 10
200.465339
 20
677.891171
 30
0.0
 10
200.432666
 20
677.391393
 30
0.0
 10
200.432666
 20
676.891616
 30
0.0
  0
SPLINE
  5
1b3
100
AcDbEntity
  8
newlayer
 62
7
100
AcDbSpline
 70
8
 71
3
 72
8
 73
4
 74
0
 40
0
 40
0
 40
0
 40
0
 40
1
 40
1
 40
1
 40
1
 10
200.432666
 20
676.891616
 30
0.0
 10
200.432666
 20
674.678314
 30
0.0
 10
201.118812
 20
673.571663
 30
0.0
 10
202.491105
 20
673.571663
 30
0.0
  0
SPLINE
  5
1b4
100
AcDbEntity
  8
newlayer
 62
7
100
AcDbSpline
 70
8
 71
3
 72
8
 73
4
 74
0
 40
0
 40
0
 40
0
 40
0
 40
1
 40
1
 40
1
 40
1
 10
202.491105
 20
673.571663
 30
0.0
 10
202.687146
 20
673.571663
 30
0.0
 10
202.915862
 20
673.607362
 30
0.0
 10
203.177255
 20
673.678758
 30
0.0
  0
SPLINE
  5
1b5
100
AcDbEntity
  8
newlayer
 62
7
100
AcDbSpline
 70
8
 71
3
 72
8
 73
4
 74
0
 40
0
 40
0
 40
0
 40
0
 40
1
 40
1
 40
1
 40
1
 10
203.177255
 20
673.678758
 30
0.0
 10
204.157467
 20
673.750155
 30
0.0
 10
204.647574
 20
674.714012
 30
0.0
 10
204.647574
 20
676.570330
 30
0.0
  0
SPLINE
  5
1b6
100
AcDbEntity
  8
newlayer
 62
7
100
AcDbSpline
 70
8
 71
3
 72
8
 73
4
 74
0
 40
0
 40
0
 40
0
 40
0
 40
1
 40
1
 40
1
 40
1
 10
204.647574
 20
676.570330
 30
0.0
 10
204.647574
 20
677.212901
 30
0.0
 10
204.549551
 20
677.855472
 30
0.0
 10
204.353505
 20
678.498043
 30
0.0
  0
SPLINE
  5
1b7
100
AcDbEntity
  8
newlayer
 62
7
100
AcDbSpline
 70
8
 71
3
 72
8
 73
4
 74
0
 40
0
 40
0
 40
0
 40
0
 40
1
 40
1
 40
1
 40
1
 10
204.353505
 20
678.498043
 30
0.0
 10
204.680244
 20
678.283853
 30
0.0
 10
205.203024
 20
677.284298
 30
0.0
 10
205.921844
 20
675.499377
 30
0.0
  0
SPLINE
  5
1b8
100
AcDbEntity
  8
newlayer
 62
7
100
AcDbSpline
 70
8
 71
3
 72
8
 73
4
 74
0
 40
0
 40
0
 40
0
 40
0
 40
1
 40
1
 40
1
 40
1
 10
205.921844
 20
675.499377
 30
0.0
 10
206.444624
 20
674.142838
 30
0.0
 10
207.163446
 20
673.428870
 30
0.0
 10
208.078312
 20
673.357473
 30
0.0
  0
LWPOLYLINE
  5
1b9
100
AcDbEntity
  8
newlayer
 62
7
100
AcDbPolyline
 90
4
 70
0
 10
205.725804
 20
667.681426
 30
0.0
 10
204.451525
 20
667.145950
 30
0.0
 10
198.962347
 20
666.931760
 30
0.0
 10
198.864327
 20
673.036187
 30
0.0
  0
SPLINE
  5
1ba
100
AcDbEntity
  8
newlayer
 62
7
100
AcDbSpline
 70
8
 71
3
 72
8
 73
4
 74
0
 40
0
 40
0
 40
0
 40
0
 40
1
 40
1
 40
1
 40
1
 10
277.673317
 20
667.145950
 30
0.0
 10
277.215884
 20
671.215568
 30
0.0
 10
277.771337
 20
673.857250
 30
0.0
 10
279.339676
 20
675.070997
 30
0.0
  0
SPLINE
  5
1bb
100
AcDbEntity
  8
newlayer
 62
7
100
AcDbSpline
 70
8
 71
3
 72
8
 73
4
 74
0
 40
0
 40
0
 40
0
 40
0
 40
1
 40
1
 40
1
 40
1
 10
279.339676
 20
675.070997
 30
0.0
 10
279.143636
 20
674.357029
 30
0.0
 10
279.045615
 20
673.214679
 30
0.0
 10
279.045615
 20
671.643949
 30
0.0
  0
SPLINE
  5
1bc
100
AcDbEntity
  8
newlayer
 62
7
100
AcDbSpline
 70
8
 71
3
 72
8
 73
4
 74
0
 40
0
 40
0
 40
0
 40
0
 40
1
 40
1
 40
1
 40
1
 10
279.045615
 20
671.643949
 30
0.0
 10
279.045615
 20
666.717569
 30
0.0
 10
279.535719
 20
664.254378
 30
0.0
 10
280.515926
 20
664.254378
 30
0.0
  0
SPLINE
  5
1bd
100
AcDbEntity
  8
newlayer
 62
7
100
AcDbSpline
 70
8
 71
3
 72
8
 73
4
 74
0
 40
0
 40
0
 40
0
 40
0
 40
1
 40
1
 40
1
 40
1
 10
280.515926
 20
664.254378
 30
0.0
 10
281.430792
 20
664.254378
 30
0.0
 10
281.888225
 20
664.789855
 30
0.0
 10
281.888225
 20
665.860807
 30
0.0
  0
SPLINE
  5
1be
100
AcDbEntity
  8
newlayer
 62
7
100
AcDbSpline
 70
8
 71
3
 72
8
 73
4
 74
0
 40
0
 40
0
 40
0
 40
0
 40
1
 40
1
 40
1
 40
1
 10
281.888225
 20
665.860807
 30
0.0
 10
281.888225
 20
666.574775
 30
0.0
 10
281.659508
 20
667.859918
 30
0.0
 10
281.202075
 20
669.716236
 30
0.0
  0
SPLINE
  5
1bf
100
AcDbEntity
  8
newlayer
 62
7
100
AcDbSpline
 70
8
 71
3
 72
8
 73
4
 74
0
 40
0
 40
0
 40
0
 40
0
 40
1
 40
1
 40
1
 40
1
 10
281.202075
 20
669.716236
 30
0.0
 10
282.705067
 20
666.003601
 30
0.0
 10
283.619933
 20
662.398061
 30
0.0
 10
283.946673
 20
658.899617
 30
0.0
  0
SPLINE
  5
1c0
100
AcDbEntity
  8
newlayer
 62
7
100
AcDbSpline
 70
8
 71
3
 72
8
 73
4
 74
0
 40
0
 40
0
 40
0
 40
0
 40
1
 40
1
 40
1
 40
1
 10
283.946673
 20
658.899617
 30
0.0
 10
283.946673
 20
658.399840
 30
0.0
 10
284.044693
 20
654.258825
 30
0.0
 10
284.240733
 20
646.476572
 30
0.0
  0
LWPOLYLINE
  5
1c1
100
AcDbEntity
  8
newlayer
 62
7
100
AcDbPolyline
 90
1
 70
1
 10
208.078312
 20
673.357473
 30
0.0
  0
SPLINE
  5
1c2
100
AcDbEntity
  8
newlayer
 62
7
100
AcDbSpline
 70
8
 71
3
 72
8
 73
4
 74
0
 40
0
 40
0
 40
0
 40
0
 40
1
 40
1
 40
1
 40
1
 10
257.480966
 20
613.491240
 30
0.0
 10
256.304714
 20
608.136478
 30
0.0
 10
255.781934
 20
602.781719
 30
0.0
 10
255.912627
 20
597.426963
 30
0.0
  0
LWPOLYLINE
  5
1c3
100
AcDbEntity
  8
newlayer
 62
7
100
AcDbPolyline
 90
9
 70
0
 10
284.240733
 20
646.476572
 30
0.0
 10
288.063552
 20
632.554192
 30
0.0
 10
291.004190
 20
610.706765
 30
0.0
 10
291.788359
 20
597.426963
 30
0.0
 10
286.691262
 20
597.105671
 30
0.0
 10
285.515003
 20
613.169958
 30
0.0
 10
283.358543
 20
612.848676
 30
0.0
 10
265.322653
 20
612.848676
 30
0.0
 10
257.480966
 20
613.491240
 30
0.0
  0
SPLINE
  5
1c4
100
AcDbEntity
  8
newlayer
 62
7
100
AcDbSpline
 70
8
 71
3
 72
8
 73
4
 74
0
 40
0
 40
0
 40
0
 40
0
 40
1
 40
1
 40
1
 40
1
 10
259.539406
 20
657.935761
 30
0.0
 10
259.408713
 20
659.220903
 30
0.0
 10
259.343366
 20
660.363252
 30
0.0
 10
259.343366
 20
661.362808
 30
0.0
  0
SPLINE
  5
1c5
100
AcDbEntity
  8
newlayer
 62
7
100
AcDbSpline
 70
8
 71
3
 72
8
 73
4
 74
0
 40
0
 40
0
 40
0
 40
0
 40
1
 40
1
 40
1
 40
1
 10
259.343366
 20
661.362808
 30
0.0
 10
259.343366
 20
663.861697
 30
0.0
 10
259.768122
 20
665.753712
 30
0.0
 10
260.617636
 20
667.038855
 30
0.0
  0
SPLINE
  5
1c6
100
AcDbEntity
  8
newlayer
 62
7
100
AcDbSpline
 70
8
 71
3
 72
8
 73
4
 74
0
 40
0
 40
0
 40
0
 40
0
 40
1
 40
1
 40
1
 40
1
 10
260.617636
 20
667.038855
 30
0.0
 10
260.486942
 20
664.825554
 30
0.0
 10
260.584965
 20
663.004935
 30
0.0
 10
260.911705
 20
661.576998
 30
0.0
  0
SPLINE
  5
1c7
100
AcDbEntity
  8
newlayer
 62
7
100
AcDbSpline
 70
8
 71
3
 72
8
 73
4
 74
0
 40
0
 40
0
 40
0
 40
0
 40
1
 40
1
 40
1
 40
1
 10
260.911705
 20
661.576998
 30
0.0
 10
261.238439
 20
659.863475
 30
0.0
 10
261.826565
 20
659.113808
 30
0.0
 10
262.676084
 20
659.327998
 30
0.0
  0
SPLINE
  5
1c8
100
AcDbEntity
  8
newlayer
 62
7
100
AcDbSpline
 70
8
 71
3
 72
8
 73
4
 74
0
 40
0
 40
0
 40
0
 40
0
 40
1
 40
1
 40
1
 40
1
 10
262.676084
 20
659.327998
 30
0.0
 10
263.983030
 20
659.756379
 30
0.0
 10
264.603830
 20
661.648395
 30
0.0
 10
264.538483
 20
665.004046
 30
0.0
  0
SPLINE
  5
1c9
100
AcDbEntity
  8
newlayer
 62
7
100
AcDbSpline
 70
8
 71
3
 72
8
 73
4
 74
0
 40
0
 40
0
 40
0
 40
0
 40
1
 40
1
 40
1
 40
1
 10
264.538483
 20
665.004046
 30
0.0
 10
264.538483
 20
666.074998
 30
0.0
 10
264.440463
 20
667.931315
 30
0.0
 10
264.244423
 20
670.572997
 30
0.0
  0
SPLINE
  5
1ca
100
AcDbEntity
  8
newlayer
 62
7
100
AcDbSpline
 70
8
 71
3
 72
8
 73
4
 74
0
 40
0
 40
0
 40
0
 40
0
 40
1
 40
1
 40
1
 40
1
 10
264.244423
 20
670.572997
 30
0.0
 10
264.048377
 20
673.286076
 30
0.0
 10
263.950354
 20
675.249489
 30
0.0
 10
263.950354
 20
676.463235
 30
0.0
  0
SPLINE
  5
1cb
100
AcDbEntity
  8
newlayer
 62
7
100
AcDbSpline
 70
8
 71
3
 72
8
 73
4
 74
0
 40
0
 40
0
 40
0
 40
0
 40
1
 40
1
 40
1
 40
1
 10
263.950354
 20
676.463235
 30
0.0
 10
263.950354
 20
679.319107
 30
0.0
 10
264.375114
 20
681.282520
 30
0.0
 10
265.224633
 20
682.353472
 30
0.0
  0
LWPOLYLINE
  5
1cc
100
AcDbEntity
  8
newlayer
 62
7
100
AcDbPolyline
 90
5
 70
0
 10
255.912627
 20
597.426963
 30
0.0
 10
250.423441
 20
596.998577
 30
0.0
 10
250.717510
 20
605.244909
 30
0.0
 10
254.344288
 20
630.091007
 30
0.0
 10
259.539406
 20
657.935761
 30
0.0
  0
SPLINE
  5
1cd
100
AcDbEntity
  8
newlayer
 62
7
100
AcDbSpline
 70
8
 71
3
 72
8
 73
4
 74
0
 40
0
 40
0
 40
0
 40
0
 40
1
 40
1
 40
1
 40
1
 10
265.518693
 20
675.070997
 30
0.0
 10
266.694946
 20
672.000934
 30
0.0
 10
267.315749
 20
670.465902
 30
0.0
 10
267.381101
 20
670.465902
 30
0.0
  0
SPLINE
  5
1ce
100
AcDbEntity
  8
newlayer
 62
7
100
AcDbSpline
 70
8
 71
3
 72
8
 73
4
 74
0
 40
0
 40
0
 40
0
 40
0
 40
1
 40
1
 40
1
 40
1
 10
267.381101
 20
670.465902
 30
0.0
 10
267.969228
 20
670.465902
 30
0.0
 10
268.949437
 20
672.857695
 30
0.0
 10
270.321730
 20
677.641282
 30
0.0
  0
SPLINE
  5
1cf
100
AcDbEntity
  8
newlayer
 62
7
100
AcDbSpline
 70
8
 71
3
 72
8
 73
4
 74
0
 40
0
 40
0
 40
0
 40
0
 40
1
 40
1
 40
1
 40
1
 10
270.321730
 20
677.641282
 30
0.0
 10
270.517771
 20
675.499377
 30
0.0
 10
270.223707
 20
673.000488
 30
0.0
 10
269.439541
 20
670.144616
 30
0.0
  0
SPLINE
  5
1d0
100
AcDbEntity
  8
newlayer
 62
7
100
AcDbSpline
 70
8
 71
3
 72
8
 73
4
 74
0
 40
0
 40
0
 40
0
 40
0
 40
1
 40
1
 40
1
 40
1
 10
269.439541
 20
670.144616
 30
0.0
 10
268.655374
 20
667.360140
 30
0.0
 10
268.263291
 20
665.646617
 30
0.0
 10
268.263291
 20
665.004046
 30
0.0
  0
SPLINE
  5
1d1
100
AcDbEntity
  8
newlayer
 62
7
100
AcDbSpline
 70
8
 71
3
 72
8
 73
4
 74
0
 40
0
 40
0
 40
0
 40
0
 40
1
 40
1
 40
1
 40
1
 10
268.263291
 20
665.004046
 30
0.0
 10
268.263291
 20
664.361474
 30
0.0
 10
268.230618
 20
663.611807
 30
0.0
 10
268.165271
 20
662.755046
 30
0.0
  0
SPLINE
  5
1d2
100
AcDbEntity
  8
newlayer
 62
7
100
AcDbSpline
 70
8
 71
3
 72
8
 73
4
 74
0
 40
0
 40
0
 40
0
 40
0
 40
1
 40
1
 40
1
 40
1
 10
268.165271
 20
662.755046
 30
0.0
 10
268.099918
 20
661.969681
 30
0.0
 10
268.067242
 20
661.434205
 30
0.0
 10
268.067242
 20
661.148617
 30
0.0
  0
SPLINE
  5
1d3
100
AcDbEntity
  8
newlayer
 62
7
100
AcDbSpline
 70
8
 71
3
 72
8
 73
4
 74
0
 40
0
 40
0
 40
0
 40
0
 40
1
 40
1
 40
1
 40
1
 10
268.067242
 20
661.148617
 30
0.0
 10
268.067242
 20
660.363252
 30
0.0
 10
268.295958
 20
659.970570
 30
0.0
 10
268.753391
 20
659.970570
 30
0.0
  0
SPLINE
  5
1d4
100
AcDbEntity
  8
newlayer
 62
7
100
AcDbSpline
 70
8
 71
3
 72
8
 73
4
 74
0
 40
0
 40
0
 40
0
 40
0
 40
1
 40
1
 40
1
 40
1
 10
268.753391
 20
659.970570
 30
0.0
 10
269.014784
 20
659.970570
 30
0.0
 10
269.308847
 20
660.041967
 30
0.0
 10
269.635581
 20
660.184761
 30
0.0
  0
SPLINE
  5
1d5
100
AcDbEntity
  8
newlayer
 62
7
100
AcDbSpline
 70
8
 71
3
 72
8
 73
4
 74
0
 40
0
 40
0
 40
0
 40
0
 40
1
 40
1
 40
1
 40
1
 10
269.635581
 20
660.184761
 30
0.0
 10
270.354407
 20
660.398951
 30
0.0
 10
271.007883
 20
664.040188
 30
0.0
 10
271.596009
 20
671.108473
 30
0.0
  0
SPLINE
  5
1d6
100
AcDbEntity
  8
newlayer
 62
7
100
AcDbSpline
 70
8
 71
3
 72
8
 73
4
 74
0
 40
0
 40
0
 40
0
 40
0
 40
1
 40
1
 40
1
 40
1
 10
271.596009
 20
671.108473
 30
0.0
 10
272.118789
 20
677.962567
 30
0.0
 10
273.262368
 20
681.568107
 30
0.0
 10
275.026748
 20
681.925091
 30
0.0
  0
SPLINE
  5
1d7
100
AcDbEntity
  8
newlayer
 62
7
100
AcDbSpline
 70
8
 71
3
 72
8
 73
4
 74
0
 40
0
 40
0
 40
0
 40
0
 40
1
 40
1
 40
1
 40
1
 10
275.026748
 20
681.925091
 30
0.0
 10
274.111882
 20
677.355695
 30
0.0
 10
273.654449
 20
673.428870
 30
0.0
 10
273.654449
 20
670.144616
 30
0.0
  0
SPLINE
  5
1d8
100
AcDbEntity
  8
newlayer
 62
7
100
AcDbSpline
 70
8
 71
3
 72
8
 73
4
 74
0
 40
0
 40
0
 40
0
 40
0
 40
1
 40
1
 40
1
 40
1
 10
273.654449
 20
670.144616
 30
0.0
 10
273.654449
 20
665.075442
 30
0.0
 10
274.503965
 20
662.505157
 30
0.0
 10
276.202998
 20
662.433760
 30
0.0
  0
SPLINE
  5
1d9
100
AcDbEntity
  8
newlayer
 62
7
100
AcDbSpline
 70
8
 71
3
 72
8
 73
4
 74
0
 40
0
 40
0
 40
0
 40
0
 40
1
 40
1
 40
1
 40
1
 10
276.202998
 20
662.433760
 30
0.0
 10
277.379250
 20
662.362363
 30
0.0
 10
277.967377
 20
662.826442
 30
0.0
 10
277.967377
 20
663.825998
 30
0.0
  0
SPLINE
  5
1da
100
AcDbEntity
  8
newlayer
 62
7
100
AcDbSpline
 70
8
 71
3
 72
8
 73
4
 74
0
 40
0
 40
0
 40
0
 40
0
 40
1
 40
1
 40
1
 40
1
 10
277.967377
 20
663.825998
 30
0.0
 10
277.967377
 20
664.325776
 30
0.0
 10
277.869357
 20
665.432426
 30
0.0
 10
277.673317
 20
667.145950
 30
0.0
  0
LWPOLYLINE
  5
1db
100
AcDbEntity
  8
newlayer
 62
7
100
AcDbPolyline
 90
2
 70
0
 10
265.224633
 20
682.353472
 30
0.0
 10
265.518693
 20
675.070997
 30
0.0
  0
SPLINE
  5
1dc
100
AcDbEntity
  8
newlayer
 62
7
100
AcDbSpline
 70
8
 71
3
 72
8
 73
4
 74
0
 40
0
 40
0
 40
0
 40
0
 40
1
 40
1
 40
1
 40
1
 10
285.024903
 20
616.275715
 30
0.0
 10
284.763510
 20
617.560857
 30
0.0
 10
284.436773
 20
619.524271
 30
0.0
 10
284.044693
 20
622.165958
 30
0.0
  0
SPLINE
  5
1dd
100
AcDbEntity
  8
newlayer
 62
7
100
AcDbSpline
 70
8
 71
3
 72
8
 73
4
 74
0
 40
0
 40
0
 40
0
 40
0
 40
1
 40
1
 40
1
 40
1
 10
284.044693
 20
622.165958
 30
0.0
 10
283.652607
 20
624.879034
 30
0.0
 10
282.966457
 20
627.520717
 30
0.0
 10
281.986245
 20
630.091007
 30
0.0
  0
SPLINE
  5
1de
100
AcDbEntity
  8
newlayer
 62
7
100
AcDbSpline
 70
8
 71
3
 72
8
 73
4
 74
0
 40
0
 40
0
 40
0
 40
0
 40
1
 40
1
 40
1
 40
1
 10
281.986245
 20
630.091007
 30
0.0
 10
278.914919
 20
642.157066
 30
0.0
 10
275.451507
 20
651.295857
 30
0.0
 10
271.596009
 20
657.507380
 30
0.0
  0
SPLINE
  5
1df
100
AcDbEntity
  8
newlayer
 62
7
100
AcDbSpline
 70
8
 71
3
 72
8
 73
4
 74
0
 40
0
 40
0
 40
0
 40
0
 40
1
 40
1
 40
1
 40
1
 10
271.596009
 20
657.507380
 30
0.0
 10
270.485103
 20
655.936650
 30
0.0
 10
269.341524
 20
654.401618
 30
0.0
 10
268.165271
 20
652.902285
 30
0.0
  0
SPLINE
  5
1e0
100
AcDbEntity
  8
newlayer
 62
7
100
AcDbSpline
 70
8
 71
3
 72
8
 73
4
 74
0
 40
0
 40
0
 40
0
 40
0
 40
1
 40
1
 40
1
 40
1
 10
268.165271
 20
652.902285
 30
0.0
 10
267.446445
 20
651.902730
 30
0.0
 10
266.989012
 20
650.760381
 30
0.0
 10
266.792972
 20
649.475238
 30
0.0
  0
SPLINE
  5
1e1
100
AcDbEntity
  8
newlayer
 62
7
100
AcDbSpline
 70
8
 71
3
 72
8
 73
4
 74
0
 40
0
 40
0
 40
0
 40
0
 40
1
 40
1
 40
1
 40
1
 10
266.792972
 20
649.475238
 30
0.0
 10
266.596932
 20
648.190095
 30
0.0
 10
266.106825
 20
646.655063
 30
0.0
 10
265.322653
 20
644.870143
 30
0.0
  0
SPLINE
  5
1e2
100
AcDbEntity
  8
newlayer
 62
7
100
AcDbSpline
 70
8
 71
3
 72
8
 73
4
 74
0
 40
0
 40
0
 40
0
 40
0
 40
1
 40
1
 40
1
 40
1
 10
265.322653
 20
644.870143
 30
0.0
 10
264.865220
 20
643.870588
 30
0.0
 10
264.407787
 20
642.906730
 30
0.0
 10
263.950354
 20
641.978572
 30
0.0
  0
LWPOLYLINE
  5
1e3
100
AcDbEntity
  8
newlayer
 62
7
100
AcDbPolyline
 90
1
 70
1
 10
277.673317
 20
667.145950
 30
0.0
  0
SPLINE
  5
1e4
100
AcDbEntity
  8
newlayer
 62
7
100
AcDbSpline
 70
8
 71
3
 72
8
 73
4
 74
0
 40
0
 40
0
 40
0
 40
0
 40
1
 40
1
 40
1
 40
1
 10
260.911705
 20
631.804526
 30
0.0
 10
260.846358
 20
631.518939
 30
0.0
 10
260.421599
 20
629.198543
 30
0.0
 10
259.637426
 20
624.843339
 30
0.0
  0
SPLINE
  5
1e5
100
AcDbEntity
  8
newlayer
 62
7
100
AcDbSpline
 70
8
 71
3
 72
8
 73
4
 74
0
 40
0
 40
0
 40
0
 40
0
 40
1
 40
1
 40
1
 40
1
 10
259.637426
 20
624.843339
 30
0.0
 10
258.918606
 20
620.559530
 30
0.0
 10
258.591870
 20
618.346227
 30
0.0
 10
258.657216
 20
618.203428
 30
0.0
  0
SPLINE
  5
1e6
100
AcDbEntity
  8
newlayer
 62
7
100
AcDbSpline
 70
8
 71
3
 72
8
 73
4
 74
0
 40
0
 40
0
 40
0
 40
0
 40
1
 40
1
 40
1
 40
1
 10
258.657216
 20
618.203428
 30
0.0
 10
258.853257
 20
617.346669
 30
0.0
 10
260.029509
 20
616.989686
 30
0.0
 10
262.185975
 20
617.132478
 30
0.0
  0
LWPOLYLINE
  5
1e7
100
AcDbEntity
  8
newlayer
 62
7
100
AcDbPolyline
 90
2
 70
0
 10
263.950354
 20
641.978572
 30
0.0
 10
260.911705
 20
631.804526
 30
0.0
  0
SPLINE
  5
1e8
100
AcDbEntity
  8
newlayer
 62
7
100
AcDbSpline
 70
8
 71
3
 72
8
 73
4
 74
0
 40
0
 40
0
 40
0
 40
0
 40
1
 40
1
 40
1
 40
1
 10
272.674239
 20
616.597007
 30
0.0
 10
272.804933
 20
616.597007
 30
0.0
 10
275.418828
 20
616.382816
 30
0.0
 10
280.515926
 20
615.954433
 30
0.0
  0
LWPOLYLINE
  5
1e9
100
AcDbEntity
  8
newlayer
 62
7
100
AcDbPolyline
 90
3
 70
0
 10
262.185975
 20
617.132478
 30
0.0
 10
269.537561
 20
616.275715
 30
0.0
 10
272.674239
 20
616.597007
 30
0.0
  0
LWPOLYLINE
  5
1ea
100
AcDbEntity
  8
newlayer
 62
7
100
AcDbPolyline
 90
2
 70
0
 10
280.515926
 20
615.954433
 30
0.0
 10
285.024903
 20
616.275715
 30
0.0
  0
SPLINE
  5
1eb
100
AcDbEntity
  8
newlayer
 62
7
100
AcDbSpline
 70
8
 71
3
 72
8
 73
4
 74
0
 40
0
 40
0
 40
0
 40
0
 40
1
 40
1
 40
1
 40
1
 10
319.626365
 20
601.282389
 30
0.0
 10
320.279838
 20
601.567973
 30
0.0
 10
321.031331
 20
601.782165
 30
0.0
 10
321.880844
 20
601.924963
 30
0.0
  0
SPLINE
  5
1ec
100
AcDbEntity
  8
newlayer
 62
7
100
AcDbSpline
 70
8
 71
3
 72
8
 73
4
 74
0
 40
0
 40
0
 40
0
 40
0
 40
1
 40
1
 40
1
 40
1
 10
321.880844
 20
601.924963
 30
0.0
 10
322.207584
 20
602.210547
 30
0.0
 10
322.730364
 20
602.389037
 30
0.0
 10
323.449183
 20
602.460434
 30
0.0
  0
SPLINE
  5
1ed
100
AcDbEntity
  8
newlayer
 62
7
100
AcDbSpline
 70
8
 71
3
 72
8
 73
4
 74
0
 40
0
 40
0
 40
0
 40
0
 40
1
 40
1
 40
1
 40
1
 10
323.449183
 20
602.460434
 30
0.0
 10
323.775923
 20
602.460434
 30
0.0
 10
324.527419
 20
602.210544
 30
0.0
 10
325.703672
 20
601.710765
 30
0.0
  0
SPLINE
  5
1ee
100
AcDbEntity
  8
newlayer
 62
7
100
AcDbSpline
 70
8
 71
3
 72
8
 73
4
 74
0
 40
0
 40
0
 40
0
 40
0
 40
1
 40
1
 40
1
 40
1
 10
325.703672
 20
601.710765
 30
0.0
 10
326.553191
 20
601.353785
 30
0.0
 10
327.500727
 20
601.175295
 30
0.0
 10
328.546281
 20
601.175295
 30
0.0
  0
SPLINE
  5
1ef
100
AcDbEntity
  8
newlayer
 62
7
100
AcDbSpline
 70
8
 71
3
 72
8
 73
4
 74
0
 40
0
 40
0
 40
0
 40
0
 40
1
 40
1
 40
1
 40
1
 10
328.546281
 20
601.175295
 30
0.0
 10
330.049273
 20
601.175295
 30
0.0
 10
331.258202
 20
601.675070
 30
0.0
 10
332.173068
 20
602.674622
 30
0.0
  0
LWPOLYLINE
  5
1f0
100
AcDbEntity
  8
newlayer
 62
7
100
AcDbPolyline
 90
6
 70
0
 10
305.511322
 20
641.550191
 30
0.0
 10
304.629132
 20
603.852676
 30
0.0
 10
307.373721
 20
603.531384
 30
0.0
 10
310.314359
 20
602.353339
 30
0.0
 10
314.235198
 20
601.496577
 30
0.0
 10
319.626365
 20
601.282389
 30
0.0
  0
SPLINE
  5
1f1
100
AcDbEntity
  8
newlayer
 62
7
100
AcDbSpline
 70
8
 71
3
 72
8
 73
4
 74
0
 40
0
 40
0
 40
0
 40
0
 40
1
 40
1
 40
1
 40
1
 10
332.957238
 20
603.638478
 30
0.0
 10
333.872098
 20
602.924511
 30
0.0
 10
334.917657
 20
602.960212
 30
0.0
 10
336.093916
 20
603.745582
 30
0.0
  0
LWPOLYLINE
  5
1f2
100
AcDbEntity
  8
newlayer
 62
7
100
AcDbPolyline
 90
2
 70
0
 10
332.173068
 20
602.674622
 30
0.0
 10
332.957238
 20
603.638478
 30
0.0
  0
SPLINE
  5
1f3
100
AcDbEntity
  8
newlayer
 62
7
100
AcDbSpline
 70
8
 71
3
 72
8
 73
4
 74
0
 40
0
 40
0
 40
0
 40
0
 40
1
 40
1
 40
1
 40
1
 10
336.093916
 20
597.426963
 30
0.0
 10
334.198837
 20
597.426963
 30
0.0
 10
329.069064
 20
597.462661
 30
0.0
 10
320.704594
 20
597.534057
 30
0.0
  0
SPLINE
  5
1f4
100
AcDbEntity
  8
newlayer
 62
7
100
AcDbSpline
 70
8
 71
3
 72
8
 73
4
 74
0
 40
0
 40
0
 40
0
 40
0
 40
1
 40
1
 40
1
 40
1
 10
320.704594
 20
597.534057
 30
0.0
 10
311.686652
 20
597.676849
 30
0.0
 10
306.426185
 20
597.748245
 30
0.0
 10
304.923192
 20
597.748245
 30
0.0
  0
LWPOLYLINE
  5
1f5
100
AcDbEntity
  8
newlayer
 62
7
100
AcDbPolyline
 90
2
 70
0
 10
336.093916
 20
603.745582
 30
0.0
 10
336.093916
 20
597.426963
 30
0.0
  0
SPLINE
  5
1f6
100
AcDbEntity
  8
newlayer
 62
7
100
AcDbSpline
 70
8
 71
3
 72
8
 73
4
 74
0
 40
0
 40
0
 40
0
 40
0
 40
1
 40
1
 40
1
 40
1
 10
297.767647
 20
620.024047
 30
0.0
 10
297.636953
 20
626.806750
 30
0.0
 10
297.473586
 20
633.589448
 30
0.0
 10
297.277546
 20
640.372143
 30
0.0
  0
SPLINE
  5
1f7
100
AcDbEntity
  8
newlayer
 62
7
100
AcDbSpline
 70
8
 71
3
 72
8
 73
4
 74
0
 40
0
 40
0
 40
0
 40
0
 40
1
 40
1
 40
1
 40
1
 10
297.277546
 20
640.372143
 30
0.0
 10
297.081500
 20
645.012937
 30
0.0
 10
296.918130
 20
649.653730
 30
0.0
 10
296.787437
 20
654.294523
 30
0.0
  0
SPLINE
  5
1f8
100
AcDbEntity
  8
newlayer
 62
7
100
AcDbSpline
 70
8
 71
3
 72
8
 73
4
 74
0
 40
0
 40
0
 40
0
 40
0
 40
1
 40
1
 40
1
 40
1
 10
296.787437
 20
654.294523
 30
0.0
 10
296.526050
 20
661.576998
 30
0.0
 10
296.101293
 20
666.289188
 30
0.0
 10
295.513167
 20
668.431092
 30
0.0
  0
SPLINE
  5
1f9
100
AcDbEntity
  8
newlayer
 62
7
100
AcDbSpline
 70
8
 71
3
 72
8
 73
4
 74
0
 40
0
 40
0
 40
0
 40
0
 40
1
 40
1
 40
1
 40
1
 10
295.513167
 20
668.431092
 30
0.0
 10
295.251774
 20
669.573441
 30
0.0
 10
294.827014
 20
671.108473
 30
0.0
 10
294.238888
 20
673.036187
 30
0.0
  0
SPLINE
  5
1fa
100
AcDbEntity
  8
newlayer
 62
7
100
AcDbSpline
 70
8
 71
3
 72
8
 73
4
 74
0
 40
0
 40
0
 40
0
 40
0
 40
1
 40
1
 40
1
 40
1
 10
294.238888
 20
673.036187
 30
0.0
 10
293.912154
 20
674.035743
 30
0.0
 10
293.944828
 20
675.427981
 30
0.0
 10
294.336908
 20
677.212901
 30
0.0
  0
SPLINE
  5
1fb
100
AcDbEntity
  8
newlayer
 62
7
100
AcDbSpline
 70
8
 71
3
 72
8
 73
4
 74
0
 40
0
 40
0
 40
0
 40
0
 40
1
 40
1
 40
1
 40
1
 10
294.336908
 20
677.212901
 30
0.0
 10
294.728994
 20
679.069218
 30
0.0
 10
295.709207
 20
680.175869
 30
0.0
 10
297.277546
 20
680.532853
 30
0.0
  0
SPLINE
  5
1fc
100
AcDbEntity
  8
newlayer
 62
7
100
AcDbSpline
 70
8
 71
3
 72
8
 73
4
 74
0
 40
0
 40
0
 40
0
 40
0
 40
1
 40
1
 40
1
 40
1
 10
297.277546
 20
680.532853
 30
0.0
 10
296.624073
 20
678.390948
 30
0.0
 10
296.297336
 20
676.141948
 30
0.0
 10
296.297336
 20
673.785853
 30
0.0
  0
SPLINE
  5
1fd
100
AcDbEntity
  8
newlayer
 62
7
100
AcDbSpline
 70
8
 71
3
 72
8
 73
4
 74
0
 40
0
 40
0
 40
0
 40
0
 40
1
 40
1
 40
1
 40
1
 10
296.297336
 20
673.785853
 30
0.0
 10
296.297336
 20
670.216013
 30
0.0
 10
297.179526
 20
668.502489
 30
0.0
 10
298.943905
 20
668.645283
 30
0.0
  0
SPLINE
  5
1fe
100
AcDbEntity
  8
newlayer
 62
7
100
AcDbSpline
 70
8
 71
3
 72
8
 73
4
 74
0
 40
0
 40
0
 40
0
 40
0
 40
1
 40
1
 40
1
 40
1
 10
298.943905
 20
668.645283
 30
0.0
 10
299.662725
 20
668.716680
 30
0.0
 10
300.120155
 20
670.144616
 30
0.0
 10
300.316195
 20
672.929092
 30
0.0
  0
SPLINE
  5
1ff
100
AcDbEntity
  8
newlayer
 62
7
100
AcDbSpline
 70
8
 71
3
 72
8
 73
4
 74
0
 40
0
 40
0
 40
0
 40
0
 40
1
 40
1
 40
1
 40
1
 10
300.316195
 20
672.929092
 30
0.0
 10
300.512241
 20
675.570774
 30
0.0
 10
300.446895
 20
677.712679
 30
0.0
 10
300.120155
 20
679.354806
 30
0.0
  0
SPLINE
  5
200
100
AcDbEntity
  8
newlayer
 62
7
100
AcDbSpline
 70
8
 71
3
 72
8
 73
4
 74
0
 40
0
 40
0
 40
0
 40
0
 40
1
 40
1
 40
1
 40
1
 10
300.120155
 20
679.354806
 30
0.0
 10
300.512241
 20
679.069218
 30
0.0
 10
300.904328
 20
678.783631
 30
0.0
 10
301.296414
 20
678.498043
 30
0.0
  0
SPLINE
  5
201
100
AcDbEntity
  8
newlayer
 62
7
100
AcDbSpline
 70
8
 71
3
 72
8
 73
4
 74
0
 40
0
 40
0
 40
0
 40
0
 40
1
 40
1
 40
1
 40
1
 10
301.296414
 20
678.498043
 30
0.0
 10
302.080580
 20
677.784075
 30
0.0
 10
302.538010
 20
676.820218
 30
0.0
 10
302.668704
 20
675.606472
 30
0.0
  0
SPLINE
  5
202
100
AcDbEntity
  8
newlayer
 62
7
100
AcDbSpline
 70
8
 71
3
 72
8
 73
4
 74
0
 40
0
 40
0
 40
0
 40
0
 40
1
 40
1
 40
1
 40
1
 10
302.668704
 20
675.606472
 30
0.0
 10
302.734051
 20
675.392282
 30
0.0
 10
302.570684
 20
674.285632
 30
0.0
 10
302.178603
 20
672.286521
 30
0.0
  0
SPLINE
  5
203
100
AcDbEntity
  8
newlayer
 62
7
100
AcDbSpline
 70
8
 71
3
 72
8
 73
4
 74
0
 40
0
 40
0
 40
0
 40
0
 40
1
 40
1
 40
1
 40
1
 10
302.178603
 20
672.286521
 30
0.0
 10
301.786517
 20
670.073219
 30
0.0
 10
301.590474
 20
668.431092
 30
0.0
 10
301.590474
 20
667.360141
 30
0.0
  0
SPLINE
  5
204
100
AcDbEntity
  8
newlayer
 62
7
100
AcDbSpline
 70
8
 71
3
 72
8
 73
4
 74
0
 40
0
 40
0
 40
0
 40
0
 40
1
 40
1
 40
1
 40
1
 10
301.590474
 20
667.360141
 30
0.0
 10
301.590474
 20
665.789411
 30
0.0
 10
301.949884
 20
665.039744
 30
0.0
 10
302.668704
 20
665.111141
 30
0.0
  0
SPLINE
  5
205
100
AcDbEntity
  8
newlayer
 62
7
100
AcDbSpline
 70
8
 71
3
 72
8
 73
4
 74
0
 40
0
 40
0
 40
0
 40
0
 40
1
 40
1
 40
1
 40
1
 10
302.668704
 20
665.111141
 30
0.0
 10
303.844957
 20
665.111141
 30
0.0
 10
304.433083
 20
665.932204
 30
0.0
 10
304.433083
 20
667.574331
 30
0.0
  0
SPLINE
  5
206
100
AcDbEntity
  8
newlayer
 62
7
100
AcDbSpline
 70
8
 71
3
 72
8
 73
4
 74
0
 40
0
 40
0
 40
0
 40
0
 40
1
 40
1
 40
1
 40
1
 10
304.433083
 20
667.574331
 30
0.0
 10
304.433083
 20
667.145950
 30
0.0
 10
304.302390
 20
668.323997
 30
0.0
 10
304.041003
 20
671.108473
 30
0.0
  0
SPLINE
  5
207
100
AcDbEntity
  8
newlayer
 62
7
100
AcDbSpline
 70
8
 71
3
 72
8
 73
4
 74
0
 40
0
 40
0
 40
0
 40
0
 40
1
 40
1
 40
1
 40
1
 10
304.041003
 20
671.108473
 30
0.0
 10
303.910309
 20
672.893393
 30
0.0
 10
303.877636
 20
674.107139
 30
0.0
 10
303.942983
 20
674.749711
 30
0.0
  0
SPLINE
  5
208
100
AcDbEntity
  8
newlayer
 62
7
100
AcDbSpline
 70
8
 71
3
 72
8
 73
4
 74
0
 40
0
 40
0
 40
0
 40
0
 40
1
 40
1
 40
1
 40
1
 10
303.942983
 20
674.749711
 30
0.0
 10
304.139023
 20
675.820663
 30
0.0
 10
304.694476
 20
676.820219
 30
0.0
 10
305.609342
 20
677.748377
 30
0.0
  0
LWPOLYLINE
  5
209
100
AcDbEntity
  8
newlayer
 62
7
100
AcDbPolyline
 90
3
 70
0
 10
304.923192
 20
597.748245
 30
0.0
 10
297.963696
 20
597.748245
 30
0.0
 10
297.767647
 20
620.024047
 30
0.0
  0
SPLINE
  5
20a
100
AcDbEntity
  8
newlayer
 62
7
100
AcDbSpline
 70
8
 71
3
 72
8
 73
4
 74
0
 40
0
 40
0
 40
0
 40
0
 40
1
 40
1
 40
1
 40
1
 10
307.569761
 20
679.354806
 30
0.0
 10
307.112328
 20
677.855472
 30
0.0
 10
307.046982
 20
676.070552
 30
0.0
 10
307.373721
 20
674.000044
 30
0.0
  0
SPLINE
  5
20b
100
AcDbEntity
  8
newlayer
 62
7
100
AcDbSpline
 70
8
 71
3
 72
8
 73
4
 74
0
 40
0
 40
0
 40
0
 40
0
 40
1
 40
1
 40
1
 40
1
 10
307.373721
 20
674.000044
 30
0.0
 10
307.896501
 20
671.215569
 30
0.0
 10
308.157891
 20
669.359251
 30
0.0
 10
308.157891
 20
668.431092
 30
0.0
  0
SPLINE
  5
20c
100
AcDbEntity
  8
newlayer
 62
7
100
AcDbSpline
 70
8
 71
3
 72
8
 73
4
 74
0
 40
0
 40
0
 40
0
 40
0
 40
1
 40
1
 40
1
 40
1
 10
308.157891
 20
668.431092
 30
0.0
 10
308.157891
 20
666.574775
 30
0.0
 10
307.831154
 20
664.647062
 30
0.0
 10
307.177681
 20
662.647951
 30
0.0
  0
LWPOLYLINE
  5
20d
100
AcDbEntity
  8
newlayer
 62
7
100
AcDbPolyline
 90
2
 70
0
 10
305.609342
 20
677.748377
 30
0.0
 10
307.569761
 20
679.354806
 30
0.0
  0
LWPOLYLINE
  5
20e
100
AcDbEntity
  8
newlayer
 62
7
100
AcDbPolyline
 90
2
 70
0
 10
307.177681
 20
662.647951
 30
0.0
 10
305.511322
 20
641.550191
 30
0.0
  0
SPLINE
  5
20f
100
AcDbEntity
  8
newlayer
 62
7
100
AcDbSpline
 70
8
 71
3
 72
8
 73
4
 74
0
 40
0
 40
0
 40
0
 40
0
 40
1
 40
1
 40
1
 40
1
 10
364.618062
 20
601.282389
 30
0.0
 10
365.271535
 20
601.567973
 30
0.0
 10
366.023028
 20
601.782165
 30
0.0
 10
366.872542
 20
601.924963
 30
0.0
  0
SPLINE
  5
210
100
AcDbEntity
  8
newlayer
 62
7
100
AcDbSpline
 70
8
 71
3
 72
8
 73
4
 74
0
 40
0
 40
0
 40
0
 40
0
 40
1
 40
1
 40
1
 40
1
 10
366.872542
 20
601.924963
 30
0.0
 10
367.199281
 20
602.210547
 30
0.0
 10
367.722061
 20
602.389037
 30
0.0
 10
368.440881
 20
602.460434
 30
0.0
  0
SPLINE
  5
211
100
AcDbEntity
  8
newlayer
 62
7
100
AcDbSpline
 70
8
 71
3
 72
8
 73
4
 74
0
 40
0
 40
0
 40
0
 40
0
 40
1
 40
1
 40
1
 40
1
 10
368.440881
 20
602.460434
 30
0.0
 10
368.767620
 20
602.460434
 30
0.0
 10
369.519116
 20
602.210544
 30
0.0
 10
370.695369
 20
601.710765
 30
0.0
  0
SPLINE
  5
212
100
AcDbEntity
  8
newlayer
 62
7
100
AcDbSpline
 70
8
 71
3
 72
8
 73
4
 74
0
 40
0
 40
0
 40
0
 40
0
 40
1
 40
1
 40
1
 40
1
 10
370.695369
 20
601.710765
 30
0.0
 10
371.544888
 20
601.353785
 30
0.0
 10
372.492428
 20
601.175295
 30
0.0
 10
373.537987
 20
601.175295
 30
0.0
  0
SPLINE
  5
213
100
AcDbEntity
  8
newlayer
 62
7
100
AcDbSpline
 70
8
 71
3
 72
8
 73
4
 74
0
 40
0
 40
0
 40
0
 40
0
 40
1
 40
1
 40
1
 40
1
 10
373.537987
 20
601.175295
 30
0.0
 10
375.040974
 20
601.175295
 30
0.0
 10
376.249900
 20
601.675070
 30
0.0
 10
377.164766
 20
602.674622
 30
0.0
  0
LWPOLYLINE
  5
214
100
AcDbEntity
  8
newlayer
 62
7
100
AcDbPolyline
 90
6
 70
0
 10
350.503019
 20
641.550191
 30
0.0
 10
349.620829
 20
603.852676
 30
0.0
 10
352.365418
 20
603.531384
 30
0.0
 10
355.306056
 20
602.353339
 30
0.0
 10
359.226895
 20
601.496577
 30
0.0
 10
364.618062
 20
601.282389
 30
0.0
  0
SPLINE
  5
215
100
AcDbEntity
  8
newlayer
 62
7
100
AcDbSpline
 70
8
 71
3
 72
8
 73
4
 74
0
 40
0
 40
0
 40
0
 40
0
 40
1
 40
1
 40
1
 40
1
 10
377.948935
 20
603.638478
 30
0.0
 10
378.863795
 20
602.924511
 30
0.0
 10
379.909355
 20
602.960212
 30
0.0
 10
381.085613
 20
603.745582
 30
0.0
  0
LWPOLYLINE
  5
216
100
AcDbEntity
  8
newlayer
 62
7
100
AcDbPolyline
 90
2
 70
0
 10
377.164766
 20
602.674622
 30
0.0
 10
377.948935
 20
603.638478
 30
0.0
  0
SPLINE
  5
217
100
AcDbEntity
  8
newlayer
 62
7
100
AcDbSpline
 70
8
 71
3
 72
8
 73
4
 74
0
 40
0
 40
0
 40
0
 40
0
 40
1
 40
1
 40
1
 40
1
 10
381.085613
 20
597.426963
 30
0.0
 10
379.190535
 20
597.426963
 30
0.0
 10
374.060761
 20
597.462661
 30
0.0
 10
365.696292
 20
597.534057
 30
0.0
  0
SPLINE
  5
218
100
AcDbEntity
  8
newlayer
 62
7
100
AcDbSpline
 70
8
 71
3
 72
8
 73
4
 74
0
 40
0
 40
0
 40
0
 40
0
 40
1
 40
1
 40
1
 40
1
 10
365.696292
 20
597.534057
 30
0.0
 10
356.678349
 20
597.676849
 30
0.0
 10
351.417882
 20
597.748245
 30
0.0
 10
349.914890
 20
597.748245
 30
0.0
  0
LWPOLYLINE
  5
219
100
AcDbEntity
  8
newlayer
 62
7
100
AcDbPolyline
 90
2
 70
0
 10
381.085613
 20
603.745582
 30
0.0
 10
381.085613
 20
597.426963
 30
0.0
  0
SPLINE
  5
21a
100
AcDbEntity
  8
newlayer
 62
7
100
AcDbSpline
 70
8
 71
3
 72
8
 73
4
 74
0
 40
0
 40
0
 40
0
 40
0
 40
1
 40
1
 40
1
 40
1
 10
342.759344
 20
620.024047
 30
0.0
 10
342.628650
 20
626.806750
 30
0.0
 10
342.465284
 20
633.589448
 30
0.0
 10
342.269243
 20
640.372143
 30
0.0
  0
SPLINE
  5
21b
100
AcDbEntity
  8
newlayer
 62
7
100
AcDbSpline
 70
8
 71
3
 72
8
 73
4
 74
0
 40
0
 40
0
 40
0
 40
0
 40
1
 40
1
 40
1
 40
1
 10
342.269243
 20
640.372143
 30
0.0
 10
342.073203
 20
645.012937
 30
0.0
 10
341.909833
 20
649.653730
 30
0.0
 10
341.779134
 20
654.294523
 30
0.0
  0
SPLINE
  5
21c
100
AcDbEntity
  8
newlayer
 62
7
100
AcDbSpline
 70
8
 71
3
 72
8
 73
4
 74
0
 40
0
 40
0
 40
0
 40
0
 40
1
 40
1
 40
1
 40
1
 10
341.779134
 20
654.294523
 30
0.0
 10
341.517747
 20
661.576998
 30
0.0
 10
341.092991
 20
666.289188
 30
0.0
 10
340.504864
 20
668.431092
 30
0.0
  0
SPLINE
  5
21d
100
AcDbEntity
  8
newlayer
 62
7
100
AcDbSpline
 70
8
 71
3
 72
8
 73
4
 74
0
 40
0
 40
0
 40
0
 40
0
 40
1
 40
1
 40
1
 40
1
 10
340.504864
 20
668.431092
 30
0.0
 10
340.243471
 20
669.573441
 30
0.0
 10
339.818712
 20
671.108473
 30
0.0
 10
339.230585
 20
673.036187
 30
0.0
  0
SPLINE
  5
21e
100
AcDbEntity
  8
newlayer
 62
7
100
AcDbSpline
 70
8
 71
3
 72
8
 73
4
 74
0
 40
0
 40
0
 40
0
 40
0
 40
1
 40
1
 40
1
 40
1
 10
339.230585
 20
673.036187
 30
0.0
 10
338.903852
 20
674.035743
 30
0.0
 10
338.936525
 20
675.427981
 30
0.0
 10
339.328605
 20
677.212901
 30
0.0
  0
SPLINE
  5
21f
100
AcDbEntity
  8
newlayer
 62
7
100
AcDbSpline
 70
8
 71
3
 72
8
 73
4
 74
0
 40
0
 40
0
 40
0
 40
0
 40
1
 40
1
 40
1
 40
1
 10
339.328605
 20
677.212901
 30
0.0
 10
339.720692
 20
679.069218
 30
0.0
 10
340.700904
 20
680.175869
 30
0.0
 10
342.269243
 20
680.532853
 30
0.0
  0
SPLINE
  5
220
100
AcDbEntity
  8
newlayer
 62
7
100
AcDbSpline
 70
8
 71
3
 72
8
 73
4
 74
0
 40
0
 40
0
 40
0
 40
0
 40
1
 40
1
 40
1
 40
1
 10
342.269243
 20
680.532853
 30
0.0
 10
341.615770
 20
678.390948
 30
0.0
 10
341.289034
 20
676.141948
 30
0.0
 10
341.289034
 20
673.785853
 30
0.0
  0
SPLINE
  5
221
100
AcDbEntity
  8
newlayer
 62
7
100
AcDbSpline
 70
8
 71
3
 72
8
 73
4
 74
0
 40
0
 40
0
 40
0
 40
0
 40
1
 40
1
 40
1
 40
1
 10
341.289034
 20
673.785853
 30
0.0
 10
341.289034
 20
670.216013
 30
0.0
 10
342.171223
 20
668.502489
 30
0.0
 10
343.935603
 20
668.645283
 30
0.0
  0
SPLINE
  5
222
100
AcDbEntity
  8
newlayer
 62
7
100
AcDbSpline
 70
8
 71
3
 72
8
 73
4
 74
0
 40
0
 40
0
 40
0
 40
0
 40
1
 40
1
 40
1
 40
1
 10
343.935603
 20
668.645283
 30
0.0
 10
344.654422
 20
668.716680
 30
0.0
 10
345.111855
 20
670.144616
 30
0.0
 10
345.307901
 20
672.929092
 30
0.0
  0
SPLINE
  5
223
100
AcDbEntity
  8
newlayer
 62
7
100
AcDbSpline
 70
8
 71
3
 72
8
 73
4
 74
0
 40
0
 40
0
 40
0
 40
0
 40
1
 40
1
 40
1
 40
1
 10
345.307901
 20
672.929092
 30
0.0
 10
345.503942
 20
675.570774
 30
0.0
 10
345.438592
 20
677.712679
 30
0.0
 10
345.111853
 20
679.354806
 30
0.0
  0
SPLINE
  5
224
100
AcDbEntity
  8
newlayer
 62
7
100
AcDbSpline
 70
8
 71
3
 72
8
 73
4
 74
0
 40
0
 40
0
 40
0
 40
0
 40
1
 40
1
 40
1
 40
1
 10
345.111853
 20
679.354806
 30
0.0
 10
345.503939
 20
679.069218
 30
0.0
 10
345.896025
 20
678.783631
 30
0.0
 10
346.288111
 20
678.498043
 30
0.0
  0
SPLINE
  5
225
100
AcDbEntity
  8
newlayer
 62
7
100
AcDbSpline
 70
8
 71
3
 72
8
 73
4
 74
0
 40
0
 40
0
 40
0
 40
0
 40
1
 40
1
 40
1
 40
1
 10
346.288111
 20
678.498043
 30
0.0
 10
347.072278
 20
677.784075
 30
0.0
 10
347.529708
 20
676.820218
 30
0.0
 10
347.660401
 20
675.606472
 30
0.0
  0
SPLINE
  5
226
100
AcDbEntity
  8
newlayer
 62
7
100
AcDbSpline
 70
8
 71
3
 72
8
 73
4
 74
0
 40
0
 40
0
 40
0
 40
0
 40
1
 40
1
 40
1
 40
1
 10
347.660401
 20
675.606472
 30
0.0
 10
347.725754
 20
675.392282
 30
0.0
 10
347.562387
 20
674.285632
 30
0.0
 10
347.170301
 20
672.286521
 30
0.0
  0
SPLINE
  5
227
100
AcDbEntity
  8
newlayer
 62
7
100
AcDbSpline
 70
8
 71
3
 72
8
 73
4
 74
0
 40
0
 40
0
 40
0
 40
0
 40
1
 40
1
 40
1
 40
1
 10
347.170301
 20
672.286521
 30
0.0
 10
346.778215
 20
670.073219
 30
0.0
 10
346.582171
 20
668.431092
 30
0.0
 10
346.582171
 20
667.360141
 30
0.0
  0
SPLINE
  5
228
100
AcDbEntity
  8
newlayer
 62
7
100
AcDbSpline
 70
8
 71
3
 72
8
 73
4
 74
0
 40
0
 40
0
 40
0
 40
0
 40
1
 40
1
 40
1
 40
1
 10
346.582171
 20
667.360141
 30
0.0
 10
346.582171
 20
665.789411
 30
0.0
 10
346.941581
 20
665.039744
 30
0.0
 10
347.660401
 20
665.111141
 30
0.0
  0
SPLINE
  5
229
100
AcDbEntity
  8
newlayer
 62
7
100
AcDbSpline
 70
8
 71
3
 72
8
 73
4
 74
0
 40
0
 40
0
 40
0
 40
0
 40
1
 40
1
 40
1
 40
1
 10
347.660401
 20
665.111141
 30
0.0
 10
348.836660
 20
665.111141
 30
0.0
 10
349.424789
 20
665.932204
 30
0.0
 10
349.424789
 20
667.574331
 30
0.0
  0
SPLINE
  5
22a
100
AcDbEntity
  8
newlayer
 62
7
100
AcDbSpline
 70
8
 71
3
 72
8
 73
4
 74
0
 40
0
 40
0
 40
0
 40
0
 40
1
 40
1
 40
1
 40
1
 10
349.424789
 20
667.574331
 30
0.0
 10
349.424789
 20
667.145950
 30
0.0
 10
349.294093
 20
668.323997
 30
0.0
 10
349.032700
 20
671.108473
 30
0.0
  0
SPLINE
  5
22b
100
AcDbEntity
  8
newlayer
 62
7
100
AcDbSpline
 70
8
 71
3
 72
8
 73
4
 74
0
 40
0
 40
0
 40
0
 40
0
 40
1
 40
1
 40
1
 40
1
 10
349.032700
 20
671.108473
 30
0.0
 10
348.902007
 20
672.893393
 30
0.0
 10
348.869333
 20
674.107139
 30
0.0
 10
348.934680
 20
674.749711
 30
0.0
  0
SPLINE
  5
22c
100
AcDbEntity
  8
newlayer
 62
7
100
AcDbSpline
 70
8
 71
3
 72
8
 73
4
 74
0
 40
0
 40
0
 40
0
 40
0
 40
1
 40
1
 40
1
 40
1
 10
348.934680
 20
674.749711
 30
0.0
 10
349.130720
 20
675.820663
 30
0.0
 10
349.686173
 20
676.820219
 30
0.0
 10
350.601039
 20
677.748377
 30
0.0
  0
LWPOLYLINE
  5
22d
100
AcDbEntity
  8
newlayer
 62
7
100
AcDbPolyline
 90
3
 70
0
 10
349.914890
 20
597.748245
 30
0.0
 10
342.955393
 20
597.748245
 30
0.0
 10
342.759344
 20
620.024047
 30
0.0
  0
SPLINE
  5
22e
100
AcDbEntity
  8
newlayer
 62
7
100
AcDbSpline
 70
8
 71
3
 72
8
 73
4
 74
0
 40
0
 40
0
 40
0
 40
0
 40
1
 40
1
 40
1
 40
1
 10
352.561459
 20
679.354806
 30
0.0
 10
352.104026
 20
677.855472
 30
0.0
 10
352.038679
 20
676.070552
 30
0.0
 10
352.365418
 20
674.000044
 30
0.0
  0
SPLINE
  5
22f
100
AcDbEntity
  8
newlayer
 62
7
100
AcDbSpline
 70
8
 71
3
 72
8
 73
4
 74
0
 40
0
 40
0
 40
0
 40
0
 40
1
 40
1
 40
1
 40
1
 10
352.365418
 20
674.000044
 30
0.0
 10
352.888198
 20
671.215569
 30
0.0
 10
353.149588
 20
669.359251
 30
0.0
 10
353.149588
 20
668.431092
 30
0.0
  0
SPLINE
  5
230
100
AcDbEntity
  8
newlayer
 62
7
100
AcDbSpline
 70
8
 71
3
 72
8
 73
4
 74
0
 40
0
 40
0
 40
0
 40
0
 40
1
 40
1
 40
1
 40
1
 10
353.149588
 20
668.431092
 30
0.0
 10
353.149588
 20
666.574775
 30
0.0
 10
352.822851
 20
664.647062
 30
0.0
 10
352.169378
 20
662.647951
 30
0.0
  0
LWPOLYLINE
  5
231
100
AcDbEntity
  8
newlayer
 62
7
100
AcDbPolyline
 90
2
 70
0
 10
350.601039
 20
677.748377
 30
0.0
 10
352.561459
 20
679.354806
 30
0.0
  0
LWPOLYLINE
  5
232
100
AcDbEntity
  8
newlayer
 62
7
100
AcDbPolyline
 90
2
 70
0
 10
352.169378
 20
662.647951
 30
0.0
 10
350.503019
 20
641.550191
 30
0.0
  0
LWPOLYLINE
  5
233
100
AcDbEntity
  8
newlayer
 62
7
100
AcDbPolyline
 90
11
 70
1
 10
243.341103
 20
712.503167
 30
0.0
 10
246.306912
 20
712.503167
 30
0.0
 10
246.306912
 20
704.278266
 30
0.0
 10
256.144007
 20
712.503167
 30
0.0
 10
259.961385
 20
712.503167
 30
0.0
 10
249.081854
 20
703.431010
 30
0.0
 10
260.739543
 20
693.042347
 30
0.0
 10
256.834065
 20
693.042347
 30
0.0
 10
246.306912
 20
702.414302
 30
0.0
 10
246.306912
 20
693.042347
 30
0.0
 10
243.341103
 20
693.042347
 30
0.0
  0
SPLINE
  5
234
100
AcDbEntity
  8
newlayer
 62
7
100
AcDbSpline
 70
8
 71
3
 72
8
 73
4
 74
0
 40
0
 40
0
 40
0
 40
0
 40
1
 40
1
 40
1
 40
1
 10
265.702136
 20
700.680686
 30
0.0
 10
265.702136
 20
698.595133
 30
0.0
 10
266.127918
 20
697.091797
 30
0.0
 10
266.979484
 20
696.170677
 30
0.0
  0
SPLINE
  5
235
100
AcDbEntity
  8
newlayer
 62
7
100
AcDbSpline
 70
8
 71
3
 72
8
 73
4
 74
0
 40
0
 40
0
 40
0
 40
0
 40
1
 40
1
 40
1
 40
1
 10
266.979484
 20
696.170677
 30
0.0
 10
267.831057
 20
695.258247
 30
0.0
 10
269.211187
 20
694.802032
 30
0.0
 10
271.119874
 20
694.802032
 30
0.0
  0
SPLINE
  5
236
100
AcDbEntity
  8
newlayer
 62
7
100
AcDbSpline
 70
8
 71
3
 72
8
 73
4
 74
0
 40
0
 40
0
 40
0
 40
0
 40
1
 40
1
 40
1
 40
1
 10
271.119874
 20
694.802032
 30
0.0
 10
273.018776
 20
694.802032
 30
0.0
 10
274.394009
 20
695.258247
 30
0.0
 10
275.245575
 20
696.170677
 30
0.0
  0
SPLINE
  5
237
100
AcDbEntity
  8
newlayer
 62
7
100
AcDbSpline
 70
8
 71
3
 72
8
 73
4
 74
0
 40
0
 40
0
 40
0
 40
0
 40
1
 40
1
 40
1
 40
1
 10
275.245575
 20
696.170677
 30
0.0
 10
276.097148
 20
697.091797
 30
0.0
 10
276.522934
 20
698.595133
 30
0.0
 10
276.522934
 20
700.680686
 30
0.0
  0
LWPOLYLINE
  5
238
100
AcDbEntity
  8
newlayer
 62
7
100
AcDbPolyline
 90
3
 70
0
 10
262.721638
 20
712.503167
 30
0.0
 10
265.702136
 20
712.503167
 30
0.0
 10
265.702136
 20
700.680686
 30
0.0
  0
SPLINE
  5
239
100
AcDbEntity
  8
newlayer
 62
7
100
AcDbSpline
 70
8
 71
3
 72
8
 73
4
 74
0
 40
0
 40
0
 40
0
 40
0
 40
1
 40
1
 40
1
 40
1
 10
279.503421
 20
700.354818
 30
0.0
 10
279.503421
 20
697.817395
 30
0.0
 10
278.793782
 20
695.901293
 30
0.0
 10
277.374503
 20
694.606512
 30
0.0
  0
SPLINE
  5
23a
100
AcDbEntity
  8
newlayer
 62
7
100
AcDbSpline
 70
8
 71
3
 72
8
 73
4
 74
0
 40
0
 40
0
 40
0
 40
0
 40
1
 40
1
 40
1
 40
1
 10
277.374503
 20
694.606512
 30
0.0
 10
275.965010
 20
693.311731
 30
0.0
 10
273.880134
 20
692.664340
 30
0.0
 10
271.119874
 20
692.664340
 30
0.0
  0
SPLINE
  5
23b
100
AcDbEntity
  8
newlayer
 62
7
100
AcDbSpline
 70
8
 71
3
 72
8
 73
4
 74
0
 40
0
 40
0
 40
0
 40
0
 40
1
 40
1
 40
1
 40
1
 10
271.119874
 20
692.664340
 30
0.0
 10
268.349829
 20
692.664340
 30
0.0
 10
266.255163
 20
693.311731
 30
0.0
 10
264.835878
 20
694.606512
 30
0.0
  0
SPLINE
  5
23c
100
AcDbEntity
  8
newlayer
 62
7
100
AcDbSpline
 70
8
 71
3
 72
8
 73
4
 74
0
 40
0
 40
0
 40
0
 40
0
 40
1
 40
1
 40
1
 40
1
 10
264.835878
 20
694.606512
 30
0.0
 10
263.426385
 20
695.901293
 30
0.0
 10
262.721638
 20
697.817395
 30
0.0
 10
262.721638
 20
700.354818
 30
0.0
  0
LWPOLYLINE
  5
23d
100
AcDbEntity
  8
newlayer
 62
7
100
AcDbPolyline
 90
4
 70
0
 10
276.522934
 20
700.680686
 30
0.0
 10
276.522934
 20
712.503167
 30
0.0
 10
279.503421
 20
712.503167
 30
0.0
 10
279.503421
 20
700.354818
 30
0.0
  0
LWPOLYLINE
  5
23e
100
AcDbEntity
  8
newlayer
 62
7
100
AcDbPolyline
 90
2
 70
0
 10
262.721638
 20
700.354818
 30
0.0
 10
262.721638
 20
712.503167
 30
0.0
  0
LWPOLYLINE
  5
23f
100
AcDbEntity
  8
newlayer
 62
7
100
AcDbPolyline
 90
10
 70
1
 10
285.067992
 20
712.503167
 30
0.0
 10
289.061549
 20
712.503167
 30
0.0
 10
298.781188
 20
696.222815
 30
0.0
 10
298.781188
 20
712.503167
 30
0.0
 10
301.658897
 20
712.503167
 30
0.0
 10
301.658897
 20
693.042347
 30
0.0
 10
297.665340
 20
693.042347
 30
0.0
 10
287.945701
 20
709.322699
 30
0.0
 10
287.945701
 20
693.042347
 30
0.0
 10
285.067992
 20
693.042347
 30
0.0
  0
LWPOLYLINE
  5
240
100
AcDbEntity
  8
newlayer
 62
7
100
AcDbPolyline
 90
4
 70
1
 10
165.764972
 20
586.348736
 30
0.0
 10
167.652518
 20
586.348736
 30
0.0
 10
167.652518
 20
561.682899
 30
0.0
 10
165.764972
 20
561.682899
 30
0.0
  0
SPLINE
  5
241
100
AcDbEntity
  8
newlayer
 62
7
100
AcDbSpline
 70
8
 71
3
 72
8
 73
4
 74
0
 40
0
 40
0
 40
0
 40
0
 40
1
 40
1
 40
1
 40
1
 10
181.659591
 20
564.425392
 30
0.0
 10
183.584515
 20
564.425392
 30
0.0
 10
184.992386
 20
565.196372
 30
0.0
 10
185.883206
 20
566.738333
 30
0.0
  0
SPLINE
  5
242
100
AcDbEntity
  8
newlayer
 62
7
100
AcDbSpline
 70
8
 71
3
 72
8
 73
4
 74
0
 40
0
 40
0
 40
0
 40
0
 40
1
 40
1
 40
1
 40
1
 10
185.883206
 20
566.738333
 30
0.0
 10
186.780258
 20
568.280285
 30
0.0
 10
187.228784
 20
570.714377
 30
0.0
 10
187.228784
 20
574.040609
 30
0.0
  0
SPLINE
  5
243
100
AcDbEntity
  8
newlayer
 62
7
100
AcDbSpline
 70
8
 71
3
 72
8
 73
4
 74
0
 40
0
 40
0
 40
0
 40
0
 40
1
 40
1
 40
1
 40
1
 10
187.228784
 20
574.040609
 30
0.0
 10
187.228784
 20
577.344805
 30
0.0
 10
186.780258
 20
579.762374
 30
0.0
 10
185.883206
 20
581.293316
 30
0.0
  0
SPLINE
  5
244
100
AcDbEntity
  8
newlayer
 62
7
100
AcDbSpline
 70
8
 71
3
 72
8
 73
4
 74
0
 40
0
 40
0
 40
0
 40
0
 40
1
 40
1
 40
1
 40
1
 10
185.883206
 20
581.293316
 30
0.0
 10
184.992386
 20
582.835276
 30
0.0
 10
183.584515
 20
583.606257
 30
0.0
 10
181.659591
 20
583.606257
 30
0.0
  0
LWPOLYLINE
  5
245
100
AcDbEntity
  8
newlayer
 62
7
100
AcDbPolyline
 90
3
 70
0
 10
179.379589
 20
583.606257
 30
0.0
 10
179.379589
 20
564.425392
 30
0.0
 10
181.659591
 20
564.425392
 30
0.0
  0
LWPOLYLINE
  5
246
100
AcDbEntity
  8
newlayer
 62
7
100
AcDbPolyline
 90
2
 70
0
 10
181.659591
 20
583.606257
 30
0.0
 10
179.379589
 20
583.606257
 30
0.0
  0
SPLINE
  5
247
100
AcDbEntity
  8
newlayer
 62
7
100
AcDbSpline
 70
8
 71
3
 72
8
 73
4
 74
0
 40
0
 40
0
 40
0
 40
0
 40
1
 40
1
 40
1
 40
1
 10
181.369919
 20
586.348736
 30
0.0
 10
184.073529
 20
586.348736
 30
0.0
 10
186.057632
 20
585.351972
 30
0.0
 10
187.322228
 20
583.358446
 30
0.0
  0
SPLINE
  5
248
100
AcDbEntity
  8
newlayer
 62
7
100
AcDbSpline
 70
8
 71
3
 72
8
 73
4
 74
0
 40
0
 40
0
 40
0
 40
0
 40
1
 40
1
 40
1
 40
1
 10
187.322228
 20
583.358446
 30
0.0
 10
188.586819
 20
581.375928
 30
0.0
 10
189.219114
 20
578.269983
 30
0.0
 10
189.219114
 20
574.040609
 30
0.0
  0
SPLINE
  5
249
100
AcDbEntity
  8
newlayer
 62
7
100
AcDbSpline
 70
8
 71
3
 72
8
 73
4
 74
0
 40
0
 40
0
 40
0
 40
0
 40
1
 40
1
 40
1
 40
1
 10
189.219114
 20
574.040609
 30
0.0
 10
189.219114
 20
569.789208
 30
0.0
 10
188.583703
 20
566.666739
 30
0.0
 10
187.312880
 20
564.673203
 30
0.0
  0
SPLINE
  5
24a
100
AcDbEntity
  8
newlayer
 62
7
100
AcDbSpline
 70
8
 71
3
 72
8
 73
4
 74
0
 40
0
 40
0
 40
0
 40
0
 40
1
 40
1
 40
1
 40
1
 10
187.312880
 20
564.673203
 30
0.0
 10
186.042057
 20
562.679667
 30
0.0
 10
184.061070
 20
561.682899
 30
0.0
 10
181.369919
 20
561.682899
 30
0.0
  0
LWPOLYLINE
  5
24b
100
AcDbEntity
  8
newlayer
 62
7
100
AcDbPolyline
 90
2
 70
0
 10
177.492043
 20
586.348736
 30
0.0
 10
181.369919
 20
586.348736
 30
0.0
  0
LWPOLYLINE
  5
24c
100
AcDbEntity
  8
newlayer
 62
7
100
AcDbPolyline
 90
3
 70
0
 10
181.369919
 20
561.682899
 30
0.0
 10
177.492043
 20
561.682899
 30
0.0
 10
177.492043
 20
586.348736
 30
0.0
  0
LWPOLYLINE
  5
24d
100
AcDbEntity
  8
newlayer
 62
7
100
AcDbPolyline
 90
12
 70
1
 10
192.227972
 20
586.348736
 30
0.0
 10
201.048970
 20
586.348736
 30
0.0
 10
201.048970
 20
583.540172
 30
0.0
 10
194.115518
 20
583.540172
 30
0.0
 10
194.115518
 20
576.237896
 30
0.0
 10
200.759297
 20
576.237896
 30
0.0
 10
200.759297
 20
573.429332
 30
0.0
 10
194.115518
 20
573.429332
 30
0.0
 10
194.115518
 20
564.491477
 30
0.0
 10
201.217169
 20
564.491477
 30
0.0
 10
201.217169
 20
561.682899
 30
0.0
 10
192.227972
 20
561.682899
 30
0.0
  0
LWPOLYLINE
  5
24e
100
AcDbEntity
  8
newlayer
 62
7
100
AcDbPolyline
 90
10
 70
1
 10
204.319471
 20
586.348736
 30
0.0
 10
206.861109
 20
586.348736
 30
0.0
 10
213.047024
 20
565.714019
 30
0.0
 10
213.047024
 20
586.348736
 30
0.0
 10
214.878503
 20
586.348736
 30
0.0
 10
214.878503
 20
561.682899
 30
0.0
 10
212.336858
 20
561.682899
 30
0.0
 10
206.150950
 20
582.317617
 30
0.0
 10
206.150950
 20
561.682899
 30
0.0
 10
204.319471
 20
561.682899
 30
0.0
  0
LWPOLYLINE
  5
24f
100
AcDbEntity
  8
newlayer
 62
7
100
AcDbPolyline
 90
10
 70
1
 10
218.634906
 20
586.348736
 30
0.0
 10
221.176551
 20
586.348736
 30
0.0
 10
227.362459
 20
565.714019
 30
0.0
 10
227.362459
 20
586.348736
 30
0.0
 10
229.193938
 20
586.348736
 30
0.0
 10
229.193938
 20
561.682899
 30
0.0
 10
226.652300
 20
561.682899
 30
0.0
 10
220.466385
 20
582.317617
 30
0.0
 10
220.466385
 20
561.682899
 30
0.0
 10
218.634906
 20
561.682899
 30
0.0
  0
LWPOLYLINE
  5
250
100
AcDbEntity
  8
newlayer
 62
7
100
AcDbPolyline
 90
12
 70
1
 10
232.950340
 20
586.348736
 30
0.0
 10
241.771338
 20
586.348736
 30
0.0
 10
241.771338
 20
583.540172
 30
0.0
 10
234.837886
 20
583.540172
 30
0.0
 10
234.837886
 20
576.237896
 30
0.0
 10
241.481665
 20
576.237896
 30
0.0
 10
241.481665
 20
573.429332
 30
0.0
 10
234.837886
 20
573.429332
 30
0.0
 10
234.837886
 20
564.491477
 30
0.0
 10
241.939537
 20
564.491477
 30
0.0
 10
241.939537
 20
561.682899
 30
0.0
 10
232.950340
 20
561.682899
 30
0.0
  0
SPLINE
  5
251
100
AcDbEntity
  8
newlayer
 62
7
100
AcDbSpline
 70
8
 71
3
 72
8
 73
4
 74
0
 40
0
 40
0
 40
0
 40
0
 40
1
 40
1
 40
1
 40
1
 10
256.040055
 20
564.425392
 30
0.0
 10
257.055466
 20
564.425392
 30
0.0
 10
257.806122
 20
564.794359
 30
0.0
 10
258.292020
 20
565.532292
 30
0.0
  0
SPLINE
  5
252
100
AcDbEntity
  8
newlayer
 62
7
100
AcDbSpline
 70
8
 71
3
 72
8
 73
4
 74
0
 40
0
 40
0
 40
0
 40
0
 40
1
 40
1
 40
1
 40
1
 10
258.292020
 20
565.532292
 30
0.0
 10
258.784156
 20
566.281244
 30
0.0
 10
259.030224
 20
567.421191
 30
0.0
 10
259.030224
 20
568.952134
 30
0.0
  0
SPLINE
  5
253
100
AcDbEntity
  8
newlayer
 62
7
100
AcDbSpline
 70
8
 71
3
 72
8
 73
4
 74
0
 40
0
 40
0
 40
0
 40
0
 40
1
 40
1
 40
1
 40
1
 10
259.030224
 20
568.952134
 30
0.0
 10
259.030224
 20
570.494094
 30
0.0
 10
258.784156
 20
571.628537
 30
0.0
 10
258.292020
 20
572.355461
 30
0.0
  0
SPLINE
  5
254
100
AcDbEntity
  8
newlayer
 62
7
100
AcDbSpline
 70
8
 71
3
 72
8
 73
4
 74
0
 40
0
 40
0
 40
0
 40
0
 40
1
 40
1
 40
1
 40
1
 10
258.292020
 20
572.355461
 30
0.0
 10
257.806122
 20
573.093403
 30
0.0
 10
257.055466
 20
573.462374
 30
0.0
 10
256.040055
 20
573.462374
 30
0.0
  0
LWPOLYLINE
  5
255
100
AcDbEntity
  8
newlayer
 62
7
100
AcDbPolyline
 90
3
 70
0
 10
253.012508
 20
573.462374
 30
0.0
 10
253.012508
 20
564.425392
 30
0.0
 10
256.040055
 20
564.425392
 30
0.0
  0
LWPOLYLINE
  5
256
100
AcDbEntity
  8
newlayer
 62
7
100
AcDbPolyline
 90
2
 70
0
 10
256.040055
 20
573.462374
 30
0.0
 10
253.012508
 20
573.462374
 30
0.0
  0
SPLINE
  5
257
100
AcDbEntity
  8
newlayer
 62
7
100
AcDbSpline
 70
8
 71
3
 72
8
 73
4
 74
0
 40
0
 40
0
 40
0
 40
0
 40
1
 40
1
 40
1
 40
1
 10
255.806448
 20
576.171811
 30
0.0
 10
256.728414
 20
576.171811
 30
0.0
 10
257.413660
 20
576.474697
 30
0.0
 10
257.862186
 20
577.080470
 30
0.0
  0
SPLINE
  5
258
100
AcDbEntity
  8
newlayer
 62
7
100
AcDbSpline
 70
8
 71
3
 72
8
 73
4
 74
0
 40
0
 40
0
 40
0
 40
0
 40
1
 40
1
 40
1
 40
1
 10
257.862186
 20
577.080470
 30
0.0
 10
258.316939
 20
577.697253
 30
0.0
 10
258.544315
 20
578.633440
 30
0.0
 10
258.544315
 20
579.889034
 30
0.0
  0
SPLINE
  5
259
100
AcDbEntity
  8
newlayer
 62
7
100
AcDbSpline
 70
8
 71
3
 72
8
 73
4
 74
0
 40
0
 40
0
 40
0
 40
0
 40
1
 40
1
 40
1
 40
1
 10
258.544315
 20
579.889034
 30
0.0
 10
258.544315
 20
581.133617
 30
0.0
 10
258.316939
 20
582.064301
 30
0.0
 10
257.862186
 20
582.681083
 30
0.0
  0
SPLINE
  5
25a
100
AcDbEntity
  8
newlayer
 62
7
100
AcDbSpline
 70
8
 71
3
 72
8
 73
4
 74
0
 40
0
 40
0
 40
0
 40
0
 40
1
 40
1
 40
1
 40
1
 10
257.862186
 20
582.681083
 30
0.0
 10
257.413660
 20
583.297866
 30
0.0
 10
256.728414
 20
583.606257
 30
0.0
 10
255.806448
 20
583.606257
 30
0.0
  0
LWPOLYLINE
  5
25b
100
AcDbEntity
  8
newlayer
 62
7
100
AcDbPolyline
 90
3
 70
0
 10
253.012508
 20
583.606257
 30
0.0
 10
253.012508
 20
576.171811
 30
0.0
 10
255.806448
 20
576.171811
 30
0.0
  0
LWPOLYLINE
  5
25c
100
AcDbEntity
  8
newlayer
 62
7
100
AcDbPolyline
 90
2
 70
0
 10
255.806448
 20
583.606257
 30
0.0
 10
253.012508
 20
583.606257
 30
0.0
  0
SPLINE
  5
25d
100
AcDbEntity
  8
newlayer
 62
7
100
AcDbSpline
 70
8
 71
3
 72
8
 73
4
 74
0
 40
0
 40
0
 40
0
 40
0
 40
1
 40
1
 40
1
 40
1
 10
255.946611
 20
586.348736
 30
0.0
 10
257.385630
 20
586.348736
 30
0.0
 10
258.494483
 20
585.820066
 30
0.0
 10
259.273171
 20
584.762727
 30
0.0
  0
SPLINE
  5
25e
100
AcDbEntity
  8
newlayer
 62
7
100
AcDbSpline
 70
8
 71
3
 72
8
 73
4
 74
0
 40
0
 40
0
 40
0
 40
0
 40
1
 40
1
 40
1
 40
1
 10
259.273171
 20
584.762727
 30
0.0
 10
260.051863
 20
583.705380
 30
0.0
 10
260.441209
 20
582.201971
 30
0.0
 10
260.441209
 20
580.252500
 30
0.0
  0
SPLINE
  5
25f
100
AcDbEntity
  8
newlayer
 62
7
100
AcDbSpline
 70
8
 71
3
 72
8
 73
4
 74
0
 40
0
 40
0
 40
0
 40
0
 40
1
 40
1
 40
1
 40
1
 10
260.441209
 20
580.252500
 30
0.0
 10
260.441209
 20
578.743577
 30
0.0
 10
260.241864
 20
577.543050
 30
0.0
 10
259.843175
 20
576.650919
 30
0.0
  0
SPLINE
  5
260
100
AcDbEntity
  8
newlayer
 62
7
100
AcDbSpline
 70
8
 71
3
 72
8
 73
4
 74
0
 40
0
 40
0
 40
0
 40
0
 40
1
 40
1
 40
1
 40
1
 10
259.843175
 20
576.650919
 30
0.0
 10
259.444486
 20
575.758787
 30
0.0
 10
258.858911
 20
575.202580
 30
0.0
 10
258.086451
 20
574.982298
 30
0.0
  0
SPLINE
  5
261
100
AcDbEntity
  8
newlayer
 62
7
100
AcDbSpline
 70
8
 71
3
 72
8
 73
4
 74
0
 40
0
 40
0
 40
0
 40
0
 40
1
 40
1
 40
1
 40
1
 10
258.086451
 20
574.982298
 30
0.0
 10
259.014649
 20
574.629854
 30
0.0
 10
259.734158
 20
573.891916
 30
0.0
 10
260.244980
 20
572.768484
 30
0.0
  0
SPLINE
  5
262
100
AcDbEntity
  8
newlayer
 62
7
100
AcDbSpline
 70
8
 71
3
 72
8
 73
4
 74
0
 40
0
 40
0
 40
0
 40
0
 40
1
 40
1
 40
1
 40
1
 10
260.244980
 20
572.768484
 30
0.0
 10
260.762029
 20
571.656070
 30
0.0
 10
261.020554
 20
570.262802
 30
0.0
 10
261.020554
 20
568.588680
 30
0.0
  0
SPLINE
  5
263
100
AcDbEntity
  8
newlayer
 62
7
100
AcDbSpline
 70
8
 71
3
 72
8
 73
4
 74
0
 40
0
 40
0
 40
0
 40
0
 40
1
 40
1
 40
1
 40
1
 10
261.020554
 20
568.588680
 30
0.0
 10
261.020554
 20
566.385881
 30
0.0
 10
260.596946
 20
564.684217
 30
0.0
 10
259.749731
 20
563.483690
 30
0.0
  0
SPLINE
  5
264
100
AcDbEntity
  8
newlayer
 62
7
100
AcDbSpline
 70
8
 71
3
 72
8
 73
4
 74
0
 40
0
 40
0
 40
0
 40
0
 40
1
 40
1
 40
1
 40
1
 10
259.749731
 20
563.483690
 30
0.0
 10
258.902516
 20
562.283163
 30
0.0
 10
257.697105
 20
561.682899
 30
0.0
 10
256.133499
 20
561.682899
 30
0.0
  0
LWPOLYLINE
  5
265
100
AcDbEntity
  8
newlayer
 62
7
100
AcDbPolyline
 90
2
 70
0
 10
251.124962
 20
586.348736
 30
0.0
 10
255.946611
 20
586.348736
 30
0.0
  0
LWPOLYLINE
  5
266
100
AcDbEntity
  8
newlayer
 62
7
100
AcDbPolyline
 90
3
 70
0
 10
256.133499
 20
561.682899
 30
0.0
 10
251.124962
 20
561.682899
 30
0.0
 10
251.124962
 20
586.348736
 30
0.0
  0
LWPOLYLINE
  5
267
100
AcDbEntity
  8
newlayer
 62
7
100
AcDbPolyline
 90
12
 70
1
 10
264.253677
 20
586.348736
 30
0.0
 10
273.074675
 20
586.348736
 30
0.0
 10
273.074675
 20
583.540172
 30
0.0
 10
266.141223
 20
583.540172
 30
0.0
 10
266.141223
 20
576.237896
 30
0.0
 10
272.785002
 20
576.237896
 30
0.0
 10
272.785002
 20
573.429332
 30
0.0
 10
266.141223
 20
573.429332
 30
0.0
 10
266.141223
 20
564.491477
 30
0.0
 10
273.242874
 20
564.491477
 30
0.0
 10
273.242874
 20
561.682899
 30
0.0
 10
264.253677
 20
561.682899
 30
0.0
  0
SPLINE
  5
268
100
AcDbEntity
  8
newlayer
 62
7
100
AcDbSpline
 70
8
 71
3
 72
8
 73
4
 74
0
 40
0
 40
0
 40
0
 40
0
 40
1
 40
1
 40
1
 40
1
 10
296.397995
 20
584.085365
 30
0.0
 10
295.027499
 20
584.085365
 30
0.0
 10
293.937332
 20
583.182219
 30
0.0
 10
293.127494
 20
581.375928
 30
0.0
  0
SPLINE
  5
269
100
AcDbEntity
  8
newlayer
 62
7
100
AcDbSpline
 70
8
 71
3
 72
8
 73
4
 74
0
 40
0
 40
0
 40
0
 40
0
 40
1
 40
1
 40
1
 40
1
 10
293.127494
 20
581.375928
 30
0.0
 10
292.323888
 20
579.569628
 30
0.0
 10
291.922086
 20
577.107999
 30
0.0
 10
291.922086
 20
573.991039
 30
0.0
  0
SPLINE
  5
26a
100
AcDbEntity
  8
newlayer
 62
7
100
AcDbSpline
 70
8
 71
3
 72
8
 73
4
 74
0
 40
0
 40
0
 40
0
 40
0
 40
1
 40
1
 40
1
 40
1
 10
291.922086
 20
573.991039
 30
0.0
 10
291.922086
 20
570.885098
 30
0.0
 10
292.323888
 20
568.428978
 30
0.0
 10
293.127494
 20
566.622678
 30
0.0
  0
SPLINE
  5
26b
100
AcDbEntity
  8
newlayer
 62
7
100
AcDbSpline
 70
8
 71
3
 72
8
 73
4
 74
0
 40
0
 40
0
 40
0
 40
0
 40
1
 40
1
 40
1
 40
1
 10
293.127494
 20
566.622678
 30
0.0
 10
293.937332
 20
564.816387
 30
0.0
 10
295.027499
 20
563.913241
 30
0.0
 10
296.397995
 20
563.913241
 30
0.0
  0
SPLINE
  5
26c
100
AcDbEntity
  8
newlayer
 62
7
100
AcDbSpline
 70
8
 71
3
 72
8
 73
4
 74
0
 40
0
 40
0
 40
0
 40
0
 40
1
 40
1
 40
1
 40
1
 10
296.397995
 20
563.913241
 30
0.0
 10
297.768487
 20
563.913241
 30
0.0
 10
298.852422
 20
564.816387
 30
0.0
 10
299.649800
 20
566.622678
 30
0.0
  0
SPLINE
  5
26d
100
AcDbEntity
  8
newlayer
 62
7
100
AcDbSpline
 70
8
 71
3
 72
8
 73
4
 74
0
 40
0
 40
0
 40
0
 40
0
 40
1
 40
1
 40
1
 40
1
 10
299.649800
 20
566.622678
 30
0.0
 10
300.453411
 20
568.428978
 30
0.0
 10
300.855216
 20
570.885098
 30
0.0
 10
300.855216
 20
573.991039
 30
0.0
  0
SPLINE
  5
26e
100
AcDbEntity
  8
newlayer
 62
7
100
AcDbSpline
 70
8
 71
3
 72
8
 73
4
 74
0
 40
0
 40
0
 40
0
 40
0
 40
1
 40
1
 40
1
 40
1
 10
300.855216
 20
573.991039
 30
0.0
 10
300.855216
 20
577.107999
 30
0.0
 10
300.453411
 20
579.569628
 30
0.0
 10
299.649800
 20
581.375928
 30
0.0
  0
SPLINE
  5
26f
100
AcDbEntity
  8
newlayer
 62
7
100
AcDbSpline
 70
8
 71
3
 72
8
 73
4
 74
0
 40
0
 40
0
 40
0
 40
0
 40
1
 40
1
 40
1
 40
1
 10
299.649800
 20
581.375928
 30
0.0
 10
298.852422
 20
583.182219
 30
0.0
 10
297.768487
 20
584.085365
 30
0.0
 10
296.397995
 20
584.085365
 30
0.0
  0
LWPOLYLINE
  5
270
100
AcDbEntity
  8
newlayer
 62
7
100
AcDbPolyline
 90
12
 70
1
 10
276.345169
 20
586.348736
 30
0.0
 10
278.232714
 20
586.348736
 30
0.0
 10
278.232714
 20
576.237896
 30
0.0
 10
285.091418
 20
576.237896
 30
0.0
 10
285.091418
 20
586.348736
 30
0.0
 10
286.978956
 20
586.348736
 30
0.0
 10
286.978956
 20
561.682899
 30
0.0
 10
285.091418
 20
561.682899
 30
0.0
 10
285.091418
 20
573.429332
 30
0.0
 10
278.232714
 20
573.429332
 30
0.0
 10
278.232714
 20
561.682899
 30
0.0
 10
276.345169
 20
561.682899
 30
0.0
  0
SPLINE
  5
271
100
AcDbEntity
  8
newlayer
 62
7
100
AcDbSpline
 70
8
 71
3
 72
8
 73
4
 74
0
 40
0
 40
0
 40
0
 40
0
 40
1
 40
1
 40
1
 40
1
 10
296.397995
 20
586.794802
 30
0.0
 10
298.354064
 20
586.794802
 30
0.0
 10
299.917673
 20
585.632826
 30
0.0
 10
301.088822
 20
583.308875
 30
0.0
  0
SPLINE
  5
272
100
AcDbEntity
  8
newlayer
 62
7
100
AcDbSpline
 70
8
 71
3
 72
8
 73
4
 74
0
 40
0
 40
0
 40
0
 40
0
 40
1
 40
1
 40
1
 40
1
 10
301.088822
 20
583.308875
 30
0.0
 10
302.259971
 20
580.995943
 30
0.0
 10
302.845546
 20
577.889998
 30
0.0
 10
302.845546
 20
573.991039
 30
0.0
  0
SPLINE
  5
273
100
AcDbEntity
  8
newlayer
 62
7
100
AcDbSpline
 70
8
 71
3
 72
8
 73
4
 74
0
 40
0
 40
0
 40
0
 40
0
 40
1
 40
1
 40
1
 40
1
 10
302.845546
 20
573.991039
 30
0.0
 10
302.845546
 20
570.103099
 30
0.0
 10
302.259971
 20
566.997154
 30
0.0
 10
301.088822
 20
564.673203
 30
0.0
  0
SPLINE
  5
274
100
AcDbEntity
  8
newlayer
 62
7
100
AcDbSpline
 70
8
 71
3
 72
8
 73
4
 74
0
 40
0
 40
0
 40
0
 40
0
 40
1
 40
1
 40
1
 40
1
 10
301.088822
 20
564.673203
 30
0.0
 10
299.917673
 20
562.360262
 30
0.0
 10
298.354064
 20
561.203791
 30
0.0
 10
296.397995
 20
561.203791
 30
0.0
  0
SPLINE
  5
275
100
AcDbEntity
  8
newlayer
 62
7
100
AcDbSpline
 70
8
 71
3
 72
8
 73
4
 74
0
 40
0
 40
0
 40
0
 40
0
 40
1
 40
1
 40
1
 40
1
 10
296.397995
 20
561.203791
 30
0.0
 10
294.435694
 20
561.203791
 30
0.0
 10
292.865856
 20
562.360262
 30
0.0
 10
291.688479
 20
564.673203
 30
0.0
  0
SPLINE
  5
276
100
AcDbEntity
  8
newlayer
 62
7
100
AcDbSpline
 70
8
 71
3
 72
8
 73
4
 74
0
 40
0
 40
0
 40
0
 40
0
 40
1
 40
1
 40
1
 40
1
 10
291.688479
 20
564.673203
 30
0.0
 10
290.517330
 20
566.986144
 30
0.0
 10
289.931756
 20
570.092090
 30
0.0
 10
289.931756
 20
573.991039
 30
0.0
  0
SPLINE
  5
277
100
AcDbEntity
  8
newlayer
 62
7
100
AcDbSpline
 70
8
 71
3
 72
8
 73
4
 74
0
 40
0
 40
0
 40
0
 40
0
 40
1
 40
1
 40
1
 40
1
 10
289.931756
 20
573.991039
 30
0.0
 10
289.931756
 20
577.889998
 30
0.0
 10
290.517330
 20
580.995943
 30
0.0
 10
291.688479
 20
583.308875
 30
0.0
  0
SPLINE
  5
278
100
AcDbEntity
  8
newlayer
 62
7
100
AcDbSpline
 70
8
 71
3
 72
8
 73
4
 74
0
 40
0
 40
0
 40
0
 40
0
 40
1
 40
1
 40
1
 40
1
 10
291.688479
 20
583.308875
 30
0.0
 10
292.865856
 20
585.632826
 30
0.0
 10
294.435694
 20
586.794802
 30
0.0
 10
296.397995
 20
586.794802
 30
0.0
  0
LWPOLYLINE
  5
279
100
AcDbEntity
  8
newlayer
 62
7
100
AcDbPolyline
 90
1
 70
1
 10
296.397995
 20
584.085365
 30
0.0
  0
LWPOLYLINE
  5
27a
100
AcDbEntity
  8
newlayer
 62
7
100
AcDbPolyline
 90
1
 70
1
 10
296.397995
 20
586.794802
 30
0.0
  0
LWPOLYLINE
  5
27b
100
AcDbEntity
  8
newlayer
 62
7
100
AcDbPolyline
 90
6
 70
1
 10
305.798330
 20
586.348736
 30
0.0
 10
307.685876
 20
586.348736
 30
0.0
 10
307.685876
 20
564.491477
 30
0.0
 10
314.479165
 20
564.491477
 30
0.0
 10
314.479165
 20
561.682899
 30
0.0
 10
305.798330
 20
561.682899
 30
0.0
  0
SPLINE
  5
27c
100
AcDbEntity
  8
newlayer
 62
7
100
AcDbSpline
 70
8
 71
3
 72
8
 73
4
 74
0
 40
0
 40
0
 40
0
 40
0
 40
1
 40
1
 40
1
 40
1
 10
320.627711
 20
564.425392
 30
0.0
 10
322.552634
 20
564.425392
 30
0.0
 10
323.960505
 20
565.196372
 30
0.0
 10
324.851325
 20
566.738333
 30
0.0
  0
SPLINE
  5
27d
100
AcDbEntity
  8
newlayer
 62
7
100
AcDbSpline
 70
8
 71
3
 72
8
 73
4
 74
0
 40
0
 40
0
 40
0
 40
0
 40
1
 40
1
 40
1
 40
1
 10
324.851325
 20
566.738333
 30
0.0
 10
325.748377
 20
568.280285
 30
0.0
 10
326.196903
 20
570.714377
 30
0.0
 10
326.196903
 20
574.040609
 30
0.0
  0
SPLINE
  5
27e
100
AcDbEntity
  8
newlayer
 62
7
100
AcDbSpline
 70
8
 71
3
 72
8
 73
4
 74
0
 40
0
 40
0
 40
0
 40
0
 40
1
 40
1
 40
1
 40
1
 10
326.196903
 20
574.040609
 30
0.0
 10
326.196903
 20
577.344805
 30
0.0
 10
325.748377
 20
579.762374
 30
0.0
 10
324.851325
 20
581.293316
 30
0.0
  0
SPLINE
  5
27f
100
AcDbEntity
  8
newlayer
 62
7
100
AcDbSpline
 70
8
 71
3
 72
8
 73
4
 74
0
 40
0
 40
0
 40
0
 40
0
 40
1
 40
1
 40
1
 40
1
 10
324.851325
 20
581.293316
 30
0.0
 10
323.960505
 20
582.835276
 30
0.0
 10
322.552634
 20
583.606257
 30
0.0
 10
320.627711
 20
583.606257
 30
0.0
  0
LWPOLYLINE
  5
280
100
AcDbEntity
  8
newlayer
 62
7
100
AcDbPolyline
 90
3
 70
0
 10
318.347708
 20
583.606257
 30
0.0
 10
318.347708
 20
564.425392
 30
0.0
 10
320.627711
 20
564.425392
 30
0.0
  0
LWPOLYLINE
  5
281
100
AcDbEntity
  8
newlayer
 62
7
100
AcDbPolyline
 90
2
 70
0
 10
320.627711
 20
583.606257
 30
0.0
 10
318.347708
 20
583.606257
 30
0.0
  0
SPLINE
  5
282
100
AcDbEntity
  8
newlayer
 62
7
100
AcDbSpline
 70
8
 71
3
 72
8
 73
4
 74
0
 40
0
 40
0
 40
0
 40
0
 40
1
 40
1
 40
1
 40
1
 10
320.338038
 20
586.348736
 30
0.0
 10
323.041648
 20
586.348736
 30
0.0
 10
325.025751
 20
585.351972
 30
0.0
 10
326.290347
 20
583.358446
 30
0.0
  0
SPLINE
  5
283
100
AcDbEntity
  8
newlayer
 62
7
100
AcDbSpline
 70
8
 71
3
 72
8
 73
4
 74
0
 40
0
 40
0
 40
0
 40
0
 40
1
 40
1
 40
1
 40
1
 10
326.290347
 20
583.358446
 30
0.0
 10
327.554938
 20
581.375928
 30
0.0
 10
328.187233
 20
578.269983
 30
0.0
 10
328.187233
 20
574.040609
 30
0.0
  0
SPLINE
  5
284
100
AcDbEntity
  8
newlayer
 62
7
100
AcDbSpline
 70
8
 71
3
 72
8
 73
4
 74
0
 40
0
 40
0
 40
0
 40
0
 40
1
 40
1
 40
1
 40
1
 10
328.187233
 20
574.040609
 30
0.0
 10
328.187233
 20
569.789208
 30
0.0
 10
327.551822
 20
566.666739
 30
0.0
 10
326.280999
 20
564.673203
 30
0.0
  0
SPLINE
  5
285
100
AcDbEntity
  8
newlayer
 62
7
100
AcDbSpline
 70
8
 71
3
 72
8
 73
4
 74
0
 40
0
 40
0
 40
0
 40
0
 40
1
 40
1
 40
1
 40
1
 10
326.280999
 20
564.673203
 30
0.0
 10
325.010176
 20
562.679667
 30
0.0
 10
323.029189
 20
561.682899
 30
0.0
 10
320.338038
 20
561.682899
 30
0.0
  0
LWPOLYLINE
  5
286
100
AcDbEntity
  8
newlayer
 62
7
100
AcDbPolyline
 90
2
 70
0
 10
316.460162
 20
586.348736
 30
0.0
 10
320.338038
 20
586.348736
 30
0.0
  0
LWPOLYLINE
  5
287
100
AcDbEntity
  8
newlayer
 62
7
100
AcDbPolyline
 90
3
 70
0
 10
320.338038
 20
561.682899
 30
0.0
 10
316.460162
 20
561.682899
 30
0.0
 10
316.460162
 20
586.348736
 30
0.0
  0
SPLINE
  5
288
100
AcDbEntity
  8
newlayer
 62
7
100
AcDbSpline
 70
8
 71
3
 72
8
 73
4
 74
0
 40
0
 40
0
 40
0
 40
0
 40
1
 40
1
 40
1
 40
1
 10
349.903332
 20
573.247592
 30
0.0
 10
350.308254
 20
573.005290
 30
0.0
 10
350.700713
 20
572.487635
 30
0.0
 10
351.080711
 20
571.694626
 30
0.0
  0
SPLINE
  5
289
100
AcDbEntity
  8
newlayer
 62
7
100
AcDbSpline
 70
8
 71
3
 72
8
 73
4
 74
0
 40
0
 40
0
 40
0
 40
0
 40
1
 40
1
 40
1
 40
1
 10
351.080711
 20
571.694626
 30
0.0
 10
351.466941
 20
570.901617
 30
0.0
 10
351.853171
 20
569.811231
 30
0.0
 10
352.239401
 20
568.423469
 30
0.0
  0
LWPOLYLINE
  5
28a
100
AcDbEntity
  8
newlayer
 62
7
100
AcDbPolyline
 90
12
 70
1
 10
331.196091
 20
586.348736
 30
0.0
 10
340.017089
 20
586.348736
 30
0.0
 10
340.017089
 20
583.540172
 30
0.0
 10
333.083637
 20
583.540172
 30
0.0
 10
333.083637
 20
576.237896
 30
0.0
 10
339.727416
 20
576.237896
 30
0.0
 10
339.727416
 20
573.429332
 30
0.0
 10
333.083637
 20
573.429332
 30
0.0
 10
333.083637
 20
564.491477
 30
0.0
 10
340.185288
 20
564.491477
 30
0.0
 10
340.185288
 20
561.682899
 30
0.0
 10
331.196091
 20
561.682899
 30
0.0
  0
SPLINE
  5
28b
100
AcDbEntity
  8
newlayer
 62
7
100
AcDbSpline
 70
8
 71
3
 72
8
 73
4
 74
0
 40
0
 40
0
 40
0
 40
0
 40
1
 40
1
 40
1
 40
1
 10
350.342515
 20
568.010445
 30
0.0
 10
349.881530
 20
569.662538
 30
0.0
 10
349.433004
 20
570.758429
 30
0.0
 10
348.996937
 20
571.298117
 30
0.0
  0
SPLINE
  5
28c
100
AcDbEntity
  8
newlayer
 62
7
100
AcDbSpline
 70
8
 71
3
 72
8
 73
4
 74
0
 40
0
 40
0
 40
0
 40
0
 40
1
 40
1
 40
1
 40
1
 10
348.996937
 20
571.298117
 30
0.0
 10
348.567102
 20
571.837805
 30
0.0
 10
347.978414
 20
572.107649
 30
0.0
 10
347.230873
 20
572.107649
 30
0.0
  0
LWPOLYLINE
  5
28d
100
AcDbEntity
  8
newlayer
 62
7
100
AcDbPolyline
 90
4
 70
0
 10
352.239401
 20
568.423469
 30
0.0
 10
354.154984
 20
561.682899
 30
0.0
 10
352.127276
 20
561.682899
 30
0.0
 10
350.342515
 20
568.010445
 30
0.0
  0
SPLINE
  5
28e
100
AcDbEntity
  8
newlayer
 62
7
100
AcDbSpline
 70
8
 71
3
 72
8
 73
4
 74
0
 40
0
 40
0
 40
0
 40
0
 40
1
 40
1
 40
1
 40
1
 10
347.548574
 20
586.348736
 30
0.0
 10
349.143331
 20
586.348736
 30
0.0
 10
350.333170
 20
585.759491
 30
0.0
 10
351.118089
 20
584.581001
 30
0.0
  0
SPLINE
  5
28f
100
AcDbEntity
  8
newlayer
 62
7
100
AcDbSpline
 70
8
 71
3
 72
8
 73
4
 74
0
 40
0
 40
0
 40
0
 40
0
 40
1
 40
1
 40
1
 40
1
 10
351.118089
 20
584.581001
 30
0.0
 10
351.903008
 20
583.402502
 30
0.0
 10
352.295468
 20
581.623740
 30
0.0
 10
352.295468
 20
579.244714
 30
0.0
  0
SPLINE
  5
290
100
AcDbEntity
  8
newlayer
 62
7
100
AcDbSpline
 70
8
 71
3
 72
8
 73
4
 74
0
 40
0
 40
0
 40
0
 40
0
 40
1
 40
1
 40
1
 40
1
 10
352.295468
 20
579.244714
 30
0.0
 10
352.295468
 20
577.691743
 30
0.0
 10
352.089894
 20
576.403108
 30
0.0
 10
351.678745
 20
575.378807
 30
0.0
  0
SPLINE
  5
291
100
AcDbEntity
  8
newlayer
 62
7
100
AcDbSpline
 70
8
 71
3
 72
8
 73
4
 74
0
 40
0
 40
0
 40
0
 40
0
 40
1
 40
1
 40
1
 40
1
 10
351.678745
 20
575.378807
 30
0.0
 10
351.273829
 20
574.354506
 30
0.0
 10
350.682024
 20
573.644101
 30
0.0
 10
349.903332
 20
573.247592
 30
0.0
  0
LWPOLYLINE
  5
292
100
AcDbEntity
  8
newlayer
 62
7
100
AcDbPolyline
 90
6
 70
0
 10
347.230873
 20
572.107649
 30
0.0
 10
345.175128
 20
572.107649
 30
0.0
 10
345.175128
 20
561.682899
 30
0.0
 10
343.287582
 20
561.682899
 30
0.0
 10
343.287582
 20
586.348736
 30
0.0
 10
347.548574
 20
586.348736
 30
0.0
  0
LWPOLYLINE
  5
293
100
AcDbEntity
  8
newlayer
 62
7
100
AcDbPolyline
 90
1
 70
1
 10
349.903332
 20
573.247592
 30
0.0
  0
SPLINE
  5
294
100
AcDbEntity
  8
newlayer
 62
7
100
AcDbSpline
 70
8
 71
3
 72
8
 73
4
 74
0
 40
0
 40
0
 40
0
 40
0
 40
1
 40
1
 40
1
 40
1
 10
347.548574
 20
574.850128
 30
0.0
 10
348.458086
 20
574.850128
 30
0.0
 10
349.143334
 20
575.219099
 30
0.0
 10
349.604319
 20
575.957042
 30
0.0
  0
SPLINE
  5
295
100
AcDbEntity
  8
newlayer
 62
7
100
AcDbSpline
 70
8
 71
3
 72
8
 73
4
 74
0
 40
0
 40
0
 40
0
 40
0
 40
1
 40
1
 40
1
 40
1
 10
349.604319
 20
575.957042
 30
0.0
 10
350.071531
 20
576.705994
 30
0.0
 10
350.305138
 20
577.801885
 30
0.0
 10
350.305138
 20
579.244714
 30
0.0
  0
SPLINE
  5
296
100
AcDbEntity
  8
newlayer
 62
7
100
AcDbSpline
 70
8
 71
3
 72
8
 73
4
 74
0
 40
0
 40
0
 40
0
 40
0
 40
1
 40
1
 40
1
 40
1
 10
350.305138
 20
579.244714
 30
0.0
 10
350.305138
 20
580.687552
 30
0.0
 10
350.071531
 20
581.772433
 30
0.0
 10
349.604319
 20
582.499357
 30
0.0
  0
SPLINE
  5
297
100
AcDbEntity
  8
newlayer
 62
7
100
AcDbSpline
 70
8
 71
3
 72
8
 73
4
 74
0
 40
0
 40
0
 40
0
 40
0
 40
1
 40
1
 40
1
 40
1
 10
349.604319
 20
582.499357
 30
0.0
 10
349.143334
 20
583.237290
 30
0.0
 10
348.458086
 20
583.606257
 30
0.0
 10
347.548574
 20
583.606257
 30
0.0
  0
LWPOLYLINE
  5
298
100
AcDbEntity
  8
newlayer
 62
7
100
AcDbPolyline
 90
3
 70
0
 10
345.175128
 20
583.606257
 30
0.0
 10
345.175128
 20
574.850128
 30
0.0
 10
347.548574
 20
574.850128
 30
0.0
  0
LWPOLYLINE
  5
299
100
AcDbEntity
  8
newlayer
 62
7
100
AcDbPolyline
 90
2
 70
0
 10
347.548574
 20
583.606257
 30
0.0
 10
345.175128
 20
583.606257
 30
0.0
  0
LWPOLYLINE
  5
29a
100
AcDbEntity
  8
newlayer
 62
7
100
AcDbPolyline
 90
12
 70
1
 10
356.584489
 20
586.348736
 30
0.0
 10
365.405487
 20
586.348736
 30
0.0
 10
365.405487
 20
583.540172
 30
0.0
 10
358.472027
 20
583.540172
 30
0.0
 10
358.472027
 20
576.237896
 30
0.0
 10
365.115814
 20
576.237896
 30
0.0
 10
365.115814
 20
573.429332
 30
0.0
 10
358.472027
 20
573.429332
 30
0.0
 10
358.472027
 20
564.491477
 30
0.0
 10
365.573678
 20
564.491477
 30
0.0
 10
365.573678
 20
561.682899
 30
0.0
 10
356.584489
 20
561.682899
 30
0.0
  0
LWPOLYLINE
  5
29b
100
AcDbEntity
  8
newlayer
 62
7
100
AcDbPolyline
 90
10
 70
1
 10
368.675988
 20
586.348736
 30
0.0
 10
371.217634
 20
586.348736
 30
0.0
 10
377.403549
 20
565.714019
 30
0.0
 10
377.403549
 20
586.348736
 30
0.0
 10
379.235028
 20
586.348736
 30
0.0
 10
379.235028
 20
561.682899
 30
0.0
 10
376.693382
 20
561.682899
 30
0.0
 10
370.507467
 20
582.317617
 30
0.0
 10
370.507467
 20
561.682899
 30
0.0
 10
368.675988
 20
561.682899
 30
0.0
  0
LWPOLYLINE
  5
29c
100
AcDbEntity
  8
newlayer
 62
7
100
AcDbPolyline
 90
59
 70
0
 10
61.500000
 20
50.500020
 30
0.0
 10
77.714286
 20
50.500020
 30
0.0
 10
77.714286
 20
56.500020
 30
0.0
 10
92.714290
 20
56.500020
 30
0.0
 10
92.714290
 20
50.500020
 30
0.0
 10
108.928570
 20
50.500020
 30
0.0
 10
108.928570
 20
56.500020
 30
0.0
 10
123.928570
 20
56.500020
 30
0.0
 10
123.928570
 20
50.500020
 30
0.0
 10
140.142860
 20
50.500020
 30
0.0
 10
140.142860
 20
56.500020
 30
0.0
 10
155.142860
 20
56.500020
 30
0.0
 10
155.142860
 20
50.500020
 30
0.0
 10
171.357140
 20
50.500020
 30
0.0
 10
171.357140
 20
56.500020
 30
0.0
 10
186.357140
 20
56.500020
 30
0.0
 10
186.357140
 20
50.500020
 30
0.0
 10
202.571430
 20
50.500020
 30
0.0
 10
202.571430
 20
56.500020
 30
0.0
 10
217.571430
 20
56.500020
 30
0.0
 10
217.571430
 20
50.500020
 30
0.0
 10
233.785710
 20
50.500020
 30
0.0
 10
233.785710
 20
56.500020
 30
0.0
 10
248.785710
 20
56.500020
 30
0.0
 10
248.785710
 20
50.500020
 30
0.0
 10
265.000000
 20
50.500020
 30
0.0
 10
265.000000
 20
56.500020
 30
0.0
 10
280.000000
 20
56.500020
 30
0.0
 10
280.000000
 20
50.500020
 30
0.0
 10
296.214290
 20
50.500020
 30
0.0
 10
296.214290
 20
56.500020
 30
0.0
 10
311.214290
 20
56.500020
 30
0.0
 10
311.214290
 20
50.500020
 30
0.0
 10
327.428570
 20
50.500020
 30
0.0
 10
327.428570
 20
56.500020
 30
0.0
 10
342.428570
 20
56.500020
 30
0.0
 10
342.428570
 20
50.500020
 30
0.0
 10
358.642860
 20
50.500020
 30
0.0
 10
358.642860
 20
56.500020
 30
0.0
 10
373.642860
 20
56.500020
 30
0.0
 10
373.642860
 20
50.500020
 30
0.0
 10
389.857140
 20
50.500020
 30
0.0
 10
389.857140
 20
56.500020
 30
0.0
 10
404.857140
 20
56.500020
 30
0.0
 10
404.857140
 20
50.500020
 30
0.0
 10
421.071430
 20
50.500020
 30
0.0
 10
421.071430
 20
56.500020
 30
0.0
 10
436.071430
 20
56.500020
 30
0.0
 10
436.071430
 20
50.500020
 30
0.0
 10
452.285710
 20
50.500020
 30
0.0
 10
452.285710
 20
56.500020
 30
0.0
 10
467.285710
 20
56.500020
 30
0.0
 10
467.285710
 20
50.500020
 30
0.0
 10
483.500000
 20
50.500020
 30
0.0
 10
483.500000
 20
33.000020
 30
0.0
 10
477.500000
 20
33.000020
 30
0.0
 10
477.500000
 20
18.000020
 30
0.0
 10
483.500000
 20
18.000020
 30
0.0
 10
483.500000
 20
0.500020
 30
0.0
  0
LWPOLYLINE
  5
29d
100
AcDbEntity
  8
newlayer
 62
7
100
AcDbPolyline
 90
6
 70
0
 10
61.500000
 20
0.500020
 30
0.0
 10
61.500000
 20
18.000020
 30
0.0
 10
67.500000
 20
18.000020
 30
0.0
 10
67.500000
 20
33.000020
 30
0.0
 10
61.500000
 20
33.000020
 30
0.0
 10
61.500000
 20
50.500020
 30
0.0
  0
LWPOLYLINE
  5
29e
100
AcDbEntity
  8
newlayer
 62
7
100
AcDbPolyline
 90
64
 70
0
 10
0.500000
 20
477.500020
 30
0.0
 10
18.000000
 20
477.500020
 30
0.0
 10
18.000000
 20
483.500020
 30
0.0
 10
33.000000
 20
483.500020
 30
0.0
 10
33.000000
 20
477.500020
 30
0.0
 10
50.500000
 20
477.500020
 30
0.0
 10
50.500000
 20
467.285730
 30
0.0
 10
56.500000
 20
467.285730
 30
0.0
 10
56.500000
 20
452.285730
 30
0.0
 10
50.500000
 20
452.285730
 30
0.0
 10
50.500000
 20
436.071450
 30
0.0
 10
56.500000
 20
436.071450
 30
0.0
 10
56.500000
 20
421.071450
 30
0.0
 10
50.500000
 20
421.071450
 30
0.0
 10
50.500000
 20
404.857160
 30
0.0
 10
56.500000
 20
404.857160
 30
0.0
 10
56.500000
 20
389.857160
 30
0.0
 10
50.500000
 20
389.857160
 30
0.0
 10
50.500000
 20
373.642880
 30
0.0
 10
56.500000
 20
373.642880
 30
0.0
 10
56.500000
 20
358.642880
 30
0.0
 10
50.500000
 20
358.642880
 30
0.0
 10
50.500000
 20
342.428590
 30
0.0
 10
56.500000
 20
342.428590
 30
0.0
 10
56.500000
 20
327.428590
 30
0.0
 10
50.500000
 20
327.428590
 30
0.0
 10
50.500000
 20
311.214310
 30
0.0
 10
56.500000
 20
311.214310
 30
0.0
 10
56.500000
 20
296.214310
 30
0.0
 10
50.500000
 20
296.214310
 30
0.0
 10
50.500000
 20
280.000020
 30
0.0
 10
56.500000
 20
280.000020
 30
0.0
 10
56.500000
 20
265.000020
 30
0.0
 10
50.500000
 20
265.000020
 30
0.0
 10
50.500000
 20
248.785730
 30
0.0
 10
56.500000
 20
248.785730
 30
0.0
 10
56.500000
 20
233.785730
 30
0.0
 10
50.500000
 20
233.785730
 30
0.0
 10
50.500000
 20
217.571450
 30
0.0
 10
56.500000
 20
217.571450
 30
0.0
 10
56.500000
 20
202.571450
 30
0.0
 10
50.500000
 20
202.571450
 30
0.0
 10
50.500000
 20
186.357160
 30
0.0
 10
56.500000
 20
186.357160
 30
0.0
 10
56.500000
 20
171.357160
 30
0.0
 10
50.500000
 20
171.357160
 30
0.0
 10
50.500000
 20
155.142880
 30
0.0
 10
56.500000
 20
155.142880
 30
0.0
 10
56.500000
 20
140.142880
 30
0.0
 10
50.500000
 20
140.142880
 30
0.0
 10
50.500000
 20
123.928590
 30
0.0
 10
56.500000
 20
123.928590
 30
0.0
 10
56.500000
 20
108.928590
 30
0.0
 10
50.500000
 20
108.928590
 30
0.0
 10
50.500000
 20
92.714310
 30
0.0
 10
56.500000
 20
92.714310
 30
0.0
 10
56.500000
 20
77.714310
 30
0.0
 10
50.500000
 20
77.714310
 30
0.0
 10
50.500000
 20
67.500020
 30
0.0
 10
33.000000
 20
67.500020
 30
0.0
 10
33.000000
 20
61.500020
 30
0.0
 10
18.000000
 20
61.500020
 30
0.0
 10
18.000000
 20
67.500020
 30
0.0
 10
0.500000
 20
67.500020
 30
0.0
  0
LWPOLYLINE
  5
29f
100
AcDbEntity
  8
newlayer
 62
7
100
AcDbPolyline
 90
212
 70
1
 10
61.500000
 20
483.500020
 30
0.0
 10
77.714286
 20
483.500020
 30
0.0
 10
77.714286
 20
477.500020
 30
0.0
 10
92.714290
 20
477.500020
 30
0.0
 10
92.714290
 20
483.500020
 30
0.0
 10
108.928570
 20
483.500020
 30
0.0
 10
108.928570
 20
477.500020
 30
0.0
 10
123.928570
 20
477.500020
 30
0.0
 10
123.928570
 20
483.500020
 30
0.0
 10
140.142860
 20
483.500020
 30
0.0
 10
140.142860
 20
477.500020
 30
0.0
 10
155.142860
 20
477.500020
 30
0.0
 10
155.142860
 20
483.500020
 30
0.0
 10
171.357140
 20
483.500020
 30
0.0
 10
171.357140
 20
477.500020
 30
0.0
 10
186.357140
 20
477.500020
 30
0.0
 10
186.357140
 20
483.500020
 30
0.0
 10
202.571430
 20
483.500020
 30
0.0
 10
202.571430
 20
477.500020
 30
0.0
 10
217.571430
 20
477.500020
 30
0.0
 10
217.571430
 20
483.500020
 30
0.0
 10
233.785710
 20
483.500020
 30
0.0
 10
233.785710
 20
477.500020
 30
0.0
 10
248.785710
 20
477.500020
 30
0.0
 10
248.785710
 20
483.500020
 30
0.0
 10
265.000000
 20
483.500020
 30
0.0
 10
265.000000
 20
477.500020
 30
0.0
 10
280.000000
 20
477.500020
 30
0.0
 10
280.000000
 20
483.500020
 30
0.0
 10
296.214290
 20
483.500020
 30
0.0
 10
296.214290
 20
477.500020
 30
0.0
 10
311.214290
 20
477.500020
 30
0.0
 10
311.214290
 20
483.500020
 30
0.0
 10
327.428570
 20
483.500020
 30
0.0
 10
327.428570
 20
477.500020
 30
0.0
 10
342.428570
 20
477.500020
 30
0.0
 10
342.428570
 20
483.500020
 30
0.0
 10
358.642860
 20
483.500020
 30
0.0
 10
358.642860
 20
477.500020
 30
0.0
 10
373.642860
 20
477.500020
 30
0.0
 10
373.642860
 20
483.500020
 30
0.0
 10
389.857140
 20
483.500020
 30
0.0
 10
389.857140
 20
477.500020
 30
0.0
 10
404.857140
 20
477.500020
 30
0.0
 10
404.857140
 20
483.500020
 30
0.0
 10
421.071430
 20
483.500020
 30
0.0
 10
421.071430
 20
477.500020
 30
0.0
 10
436.071430
 20
477.500020
 30
0.0
 10
436.071430
 20
483.500020
 30
0.0
 10
452.285710
 20
483.500020
 30
0.0
 10
452.285710
 20
477.500020
 30
0.0
 10
467.285710
 20
477.500020
 30
0.0
 10
467.285710
 20
483.500020
 30
0.0
 10
483.500000
 20
483.500020
 30
0.0
 10
483.500000
 20
467.285730
 30
0.0
 10
477.500000
 20
467.285730
 30
0.0
 10
477.500000
 20
452.285730
 30
0.0
 10
483.500000
 20
452.285730
 30
0.0
 10
483.500000
 20
436.071450
 30
0.0
 10
477.500000
 20
436.071450
 30
0.0
 10
477.500000
 20
421.071450
 30
0.0
 10
483.500000
 20
421.071450
 30
0.0
 10
483.500000
 20
404.857160
 30
0.0
 10
477.500000
 20
404.857160
 30
0.0
 10
477.500000
 20
389.857160
 30
0.0
 10
483.500000
 20
389.857160
 30
0.0
 10
483.500000
 20
373.642880
 30
0.0
 10
477.500000
 20
373.642880
 30
0.0
 10
477.500000
 20
358.642880
 30
0.0
 10
483.500000
 20
358.642880
 30
0.0
 10
483.500000
 20
342.428590
 30
0.0
 10
477.500000
 20
342.428590
 30
0.0
 10
477.500000
 20
327.428590
 30
0.0
 10
483.500000
 20
327.428590
 30
0.0
 10
483.500000
 20
311.214310
 30
0.0
 10
477.500000
 20
311.214310
 30
0.0
 10
477.500000
 20
296.214310
 30
0.0
 10
483.500000
 20
296.214310
 30
0.0
 10
483.500000
 20
280.000020
 30
0.0
 10
477.500000
 20
280.000020
 30
0.0
 10
477.500000
 20
265.000020
 30
0.0
 10
483.500000
 20
265.000020
 30
0.0
 10
483.500000
 20
248.785730
 30
0.0
 10
477.500000
 20
248.785730
 30
0.0
 10
477.500000
 20
233.785730
 30
0.0
 10
483.500000
 20
233.785730
 30
0.0
 10
483.500000
 20
217.571450
 30
0.0
 10
477.500000
 20
217.571450
 30
0.0
 10
477.500000
 20
202.571450
 30
0.0
 10
483.500000
 20
202.571450
 30
0.0
 10
483.500000
 20
186.357160
 30
0.0
 10
477.500000
 20
186.357160
 30
0.0
 10
477.500000
 20
171.357160
 30
0.0
 10
483.500000
 20
171.357160
 30
0.0
 10
483.500000
 20
155.142880
 30
0.0
 10
477.500000
 20
155.142880
 30
0.0
 10
477.500000
 20
140.142880
 30
0.0
 10
483.500000
 20
140.142880
 30
0.0
 10
483.500000
 20
123.928590
 30
0.0
 10
477.500000
 20
123.928590
 30
0.0
 10
477.500000
 20
108.928590
 30
0.0
 10
483.500000
 20
108.928590
 30
0.0
 10
483.500000
 20
92.714310
 30
0.0
 10
477.500000
 20
92.714310
 30
0.0
 10
477.500000
 20
77.714310
 30
0.0
 10
483.500000
 20
77.714310
 30
0.0
 10
483.500000
 20
61.500020
 30
0.0
 10
467.285710
 20
61.500020
 30
0.0
 10
467.285710
 20
67.500020
 30
0.0
 10
452.285710
 20
67.500020
 30
0.0
 10
452.285710
 20
61.500020
 30
0.0
 10
436.071430
 20
61.500020
 30
0.0
 10
436.071430
 20
67.500020
 30
0.0
 10
421.071430
 20
67.500020
 30
0.0
 10
421.071430
 20
61.500020
 30
0.0
 10
404.857140
 20
61.500020
 30
0.0
 10
404.857140
 20
67.500020
 30
0.0
 10
389.857140
 20
67.500020
 30
0.0
 10
389.857140
 20
61.500020
 30
0.0
 10
373.642860
 20
61.500020
 30
0.0
 10
373.642860
 20
67.500020
 30
0.0
 10
358.642860
 20
67.500020
 30
0.0
 10
358.642860
 20
61.500020
 30
0.0
 10
342.428570
 20
61.500020
 30
0.0
 10
342.428570
 20
67.500020
 30
0.0
 10
327.428570
 20
67.500020
 30
0.0
 10
327.428570
 20
61.500020
 30
0.0
 10
311.214290
 20
61.500020
 30
0.0
 10
311.214290
 20
67.500020
 30
0.0
 10
296.214290
 20
67.500020
 30
0.0
 10
296.214290
 20
61.500020
 30
0.0
 10
280.000000
 20
61.500020
 30
0.0
 10
280.000000
 20
67.500020
 30
0.0
 10
265.000000
 20
67.500020
 30
0.0
 10
265.000000
 20
61.500020
 30
0.0
 10
248.785710
 20
61.500020
 30
0.0
 10
248.785710
 20
67.500020
 30
0.0
 10
233.785710
 20
67.500020
 30
0.0
 10
233.785710
 20
61.500020
 30
0.0
 10
217.571430
 20
61.500020
 30
0.0
 10
217.571430
 20
67.500020
 30
0.0
 10
202.571430
 20
67.500020
 30
0.0
 10
202.571430
 20
61.500020
 30
0.0
 10
186.357140
 20
61.500020
 30
0.0
 10
186.357140
 20
67.500020
 30
0.0
 10
171.357140
 20
67.500020
 30
0.0
 10
171.357140
 20
61.500020
 30
0.0
 10
155.142860
 20
61.500020
 30
0.0
 10
155.142860
 20
67.500020
 30
0.0
 10
140.142860
 20
67.500020
 30
0.0
 10
140.142860
 20
61.500020
 30
0.0
 10
123.928570
 20
61.500020
 30
0.0
 10
123.928570
 20
67.500020
 30
0.0
 10
108.928570
 20
67.500020
 30
0.0
 10
108.928570
 20
61.500020
 30
0.0
 10
92.714290
 20
61.500020
 30
0.0
 10
92.714290
 20
67.500020
 30
0.0
 10
77.714286
 20
67.500020
 30
0.0
 10
77.714286
 20
61.500020
 30
0.0
 10
61.500000
 20
61.500020
 30
0.0
 10
61.500000
 20
77.714310
 30
0.0
 10
67.500000
 20
77.714310
 30
0.0
 10
67.500000
 20
92.714310
 30
0.0
 10
61.500000
 20
92.714310
 30
0.0
 10
61.500000
 20
108.928590
 30
0.0
 10
67.500000
 20
108.928590
 30
0.0
 10
67.500000
 20
123.928590
 30
0.0
 10
61.500000
 20
123.928590
 30
0.0
 10
61.500000
 20
140.142880
 30
0.0
 10
67.500000
 20
140.142880
 30
0.0
 10
67.500000
 20
155.142880
 30
0.0
 10
61.500000
 20
155.142880
 30
0.0
 10
61.500000
 20
171.357160
 30
0.0
 10
67.500000
 20
171.357160
 30
0.0
 10
67.500000
 20
186.357160
 30
0.0
 10
61.500000
 20
186.357160
 30
0.0
 10
61.500000
 20
202.571450
 30
0.0
 10
67.500000
 20
202.571450
 30
0.0
 10
67.500000
 20
217.571450
 30
0.0
 10
61.500000
 20
217.571450
 30
0.0
 10
61.500000
 20
233.785730
 30
0.0
 10
67.500000
 20
233.785730
 30
0.0
 10
67.500000
 20
248.785730
 30
0.0
 10
61.500000
 20
248.785730
 30
0.0
 10
61.500000
 20
265.000020
 30
0.0
 10
67.500000
 20
265.000020
 30
0.0
 10
67.500000
 20
280.000020
 30
0.0
 10
61.500000
 20
280.000020
 30
0.0
 10
61.500000
 20
296.214310
 30
0.0
 10
67.500000
 20
296.214310
 30
0.0
 10
67.500000
 20
311.214310
 30
0.0
 10
61.500000
 20
311.214310
 30
0.0
 10
61.500000
 20
327.428590
 30
0.0
 10
67.500000
 20
327.428590
 30
0.0
 10
67.500000
 20
342.428590
 30
0.0
 10
61.500000
 20
342.428590
 30
0.0
 10
61.500000
 20
358.642880
 30
0.0
 10
67.500000
 20
358.642880
 30
0.0
 10
67.500000
 20
373.642880
 30
0.0
 10
61.500000
 20
373.642880
 30
0.0
 10
61.500000
 20
389.857160
 30
0.0
 10
67.500000
 20
389.857160
 30
0.0
 10
67.500000
 20
404.857160
 30
0.0
 10
61.500000
 20
404.857160
 30
0.0
 10
61.500000
 20
421.071450
 30
0.0
 10
67.500000
 20
421.071450
 30
0.0
 10
67.500000
 20
436.071450
 30
0.0
 10
61.500000
 20
436.071450
 30
0.0
 10
61.500000
 20
452.285730
 30
0.0
 10
67.500000
 20
452.285730
 30
0.0
 10
67.500000
 20
467.285730
 30
0.0
 10
61.500000
 20
467.285730
 30
0.0
  0
LWPOLYLINE
  5
2a0
100
AcDbEntity
  8
newlayer
 62
7
100
AcDbPolyline
 90
6
 70
0
 10
494.500000
 20
477.500020
 30
0.0
 10
512.000000
 20
477.500020
 30
0.0
 10
512.000000
 20
483.500020
 30
0.0
 10
527.000000
 20
483.500020
 30
0.0
 10
527.000000
 20
477.500020
 30
0.0
 10
544.500000
 20
477.500020
 30
0.0
  0
LWPOLYLINE
  5
2a1
100
AcDbEntity
  8
newlayer
 62
7
100
AcDbPolyline
 90
59
 70
0
 10
544.500000
 20
67.500020
 30
0.0
 10
527.000000
 20
67.500020
 30
0.0
 10
527.000000
 20
61.500020
 30
0.0
 10
512.000000
 20
61.500020
 30
0.0
 10
512.000000
 20
67.500020
 30
0.0
 10
494.500000
 20
67.500020
 30
0.0
 10
494.500000
 20
77.714310
 30
0.0
 10
488.500000
 20
77.714310
 30
0.0
 10
488.500000
 20
92.714310
 30
0.0
 10
494.500000
 20
92.714310
 30
0.0
 10
494.500000
 20
108.928590
 30
0.0
 10
488.500000
 20
108.928590
 30
0.0
 10
488.500000
 20
123.928590
 30
0.0
 10
494.500000
 20
123.928590
 30
0.0
 10
494.500000
 20
140.142880
 30
0.0
 10
488.500000
 20
140.142880
 30
0.0
 10
488.500000
 20
155.142880
 30
0.0
 10
494.500000
 20
155.142880
 30
0.0
 10
494.500000
 20
171.357160
 30
0.0
 10
488.500000
 20
171.357160
 30
0.0
 10
488.500000
 20
186.357160
 30
0.0
 10
494.500000
 20
186.357160
 30
0.0
 10
494.500000
 20
202.571450
 30
0.0
 10
488.500000
 20
202.571450
 30
0.0
 10
488.500000
 20
217.571450
 30
0.0
 10
494.500000
 20
217.571450
 30
0.0
 10
494.500000
 20
233.785730
 30
0.0
 10
488.500000
 20
233.785730
 30
0.0
 10
488.500000
 20
248.785730
 30
0.0
 10
494.500000
 20
248.785730
 30
0.0
 10
494.500000
 20
265.000020
 30
0.0
 10
488.500000
 20
265.000020
 30
0.0
 10
488.500000
 20
280.000020
 30
0.0
 10
494.500000
 20
280.000020
 30
0.0
 10
494.500000
 20
296.214310
 30
0.0
 10
488.500000
 20
296.214310
 30
0.0
 10
488.500000
 20
311.214310
 30
0.0
 10
494.500000
 20
311.214310
 30
0.0
 10
494.500000
 20
327.428590
 30
0.0
 10
488.500000
 20
327.428590
 30
0.0
 10
488.500000
 20
342.428590
 30
0.0
 10
494.500000
 20
342.428590
 30
0.0
 10
494.500000
 20
358.642880
 30
0.0
 10
488.500000
 20
358.642880
 30
0.0
 10
488.500000
 20
373.642880
 30
0.0
 10
494.500000
 20
373.642880
 30
0.0
 10
494.500000
 20
389.857160
 30
0.0
 10
488.500000
 20
389.857160
 30
0.0
 10
488.500000
 20
404.857160
 30
0.0
 10
494.500000
 20
404.857160
 30
0.0
 10
494.500000
 20
421.071450
 30
0.0
 10
488.500000
 20
421.071450
 30
0.0
 10
488.500000
 20
436.071450
 30
0.0
 10
494.500000
 20
436.071450
 30
0.0
 10
494.500000
 20
452.285730
 30
0.0
 10
488.500000
 20
452.285730
 30
0.0
 10
488.500000
 20
467.285730
 30
0.0
 10
494.500000
 20
467.285730
 30
0.0
 10
494.500000
 20
477.500020
 30
0.0
  0
LWPOLYLINE
  5
2a2
100
AcDbEntity
  8
newlayer
 62
7
100
AcDbPolyline
 90
6
 70
0
 10
483.500000
 20
544.500020
 30
0.0
 10
483.500000
 20
527.000020
 30
0.0
 10
477.500000
 20
527.000020
 30
0.0
 10
477.500000
 20
512.000020
 30
0.0
 10
483.500000
 20
512.000020
 30
0.0
 10
483.500000
 20
494.500020
 30
0.0
  0
LWPOLYLINE
  5
2a3
100
AcDbEntity
  8
newlayer
 62
7
100
AcDbPolyline
 90
6
 70
0
 10
61.500000
 20
494.500020
 30
0.0
 10
61.500000
 20
512.000020
 30
0.0
 10
67.500000
 20
512.000020
 30
0.0
 10
67.500000
 20
527.000020
 30
0.0
 10
61.500000
 20
527.000020
 30
0.0
 10
61.500000
 20
544.500020
 30
0.0
  0
LWPOLYLINE
  5
2a4
100
AcDbEntity
  8
newlayer
 62
7
100
AcDbPolyline
 90
4
 70
1
 10
92.714279
 20
550.500020
 30
0.0
 10
108.928566
 20
550.500020
 30
0.0
 10
108.928566
 20
544.500020
 30
0.0
 10
92.714279
 20
544.500020
 30
0.0
  0
LWPOLYLINE
  5
2a5
100
AcDbEntity
  8
newlayer
 62
7
100
AcDbPolyline
 90
4
 70
1
 10
123.928570
 20
550.500020
 30
0.0
 10
140.142857
 20
550.500020
 30
0.0
 10
140.142857
 20
544.500020
 30
0.0
 10
123.928570
 20
544.500020
 30
0.0
  0
LWPOLYLINE
  5
2a6
100
AcDbEntity
  8
newlayer
 62
7
100
AcDbPolyline
 90
4
 70
1
 10
155.142850
 20
550.500020
 30
0.0
 10
171.357137
 20
550.500020
 30
0.0
 10
171.357137
 20
544.500020
 30
0.0
 10
155.142850
 20
544.500020
 30
0.0
  0
LWPOLYLINE
  5
2a7
100
AcDbEntity
  8
newlayer
 62
7
100
AcDbPolyline
 90
4
 70
1
 10
186.357130
 20
550.500020
 30
0.0
 10
202.571417
 20
550.500020
 30
0.0
 10
202.571417
 20
544.500020
 30
0.0
 10
186.357130
 20
544.500020
 30
0.0
  0
LWPOLYLINE
  5
2a8
100
AcDbEntity
  8
newlayer
 62
7
100
AcDbPolyline
 90
4
 70
1
 10
217.571430
 20
550.500020
 30
0.0
 10
233.785717
 20
550.500020
 30
0.0
 10
233.785717
 20
544.500020
 30
0.0
 10
217.571430
 20
544.500020
 30
0.0
  0
LWPOLYLINE
  5
2a9
100
AcDbEntity
  8
newlayer
 62
7
100
AcDbPolyline
 90
4
 70
1
 10
248.785710
 20
550.500020
 30
0.0
 10
264.999997
 20
550.500020
 30
0.0
 10
264.999997
 20
544.500020
 30
0.0
 10
248.785710
 20
544.500020
 30
0.0
  0
LWPOLYLINE
  5
2aa
100
AcDbEntity
  8
newlayer
 62
7
100
AcDbPolyline
 90
4
 70
1
 10
280.000000
 20
550.500020
 30
0.0
 10
296.214287
 20
550.500020
 30
0.0
 10
296.214287
 20
544.500020
 30
0.0
 10
280.000000
 20
544.500020
 30
0.0
  0
LWPOLYLINE
  5
2ab
100
AcDbEntity
  8
newlayer
 62
7
100
AcDbPolyline
 90
4
 70
1
 10
311.214260
 20
550.500020
 30
0.0
 10
327.428547
 20
550.500020
 30
0.0
 10
327.428547
 20
544.500020
 30
0.0
 10
311.214260
 20
544.500020
 30
0.0
  0
LWPOLYLINE
  5
2ac
100
AcDbEntity
  8
newlayer
 62
7
100
AcDbPolyline
 90
4
 70
1
 10
342.428590
 20
550.500020
 30
0.0
 10
358.642877
 20
550.500020
 30
0.0
 10
358.642877
 20
544.500020
 30
0.0
 10
342.428590
 20
544.500020
 30
0.0
  0
LWPOLYLINE
  5
2ad
100
AcDbEntity
  8
newlayer
 62
7
100
AcDbPolyline
 90
4
 70
1
 10
373.642850
 20
550.500020
 30
0.0
 10
389.857137
 20
550.500020
 30
0.0
 10
389.857137
 20
544.500020
 30
0.0
 10
373.642850
 20
544.500020
 30
0.0
  0
LWPOLYLINE
  5
2ae
100
AcDbEntity
  8
newlayer
 62
7
100
AcDbPolyline
 90
4
 70
1
 10
404.857150
 20
550.500020
 30
0.0
 10
421.071437
 20
550.500020
 30
0.0
 10
421.071437
 20
544.500020
 30
0.0
 10
404.857150
 20
544.500020
 30
0.0
  0
LWPOLYLINE
  5
2af
100
AcDbEntity
  8
newlayer
 62
7
100
AcDbPolyline
 90
4
 70
1
 10
436.071410
 20
550.500020
 30
0.0
 10
452.285697
 20
550.500020
 30
0.0
 10
452.285697
 20
544.500020
 30
0.0
 10
436.071410
 20
544.500020
 30
0.0
  0
LWPOLYLINE
  5
2b0
100
AcDbEntity
  8
newlayer
 62
7
100
AcDbPolyline
 90
2
 70
0
 10
0.500000
 20
477.500020
 30
0.0
 10
0.500000
 20
67.500040
 30
0.0
  0
LWPOLYLINE
  5
2b1
100
AcDbEntity
  8
newlayer
 62
7
100
AcDbPolyline
 90
2
 70
0
 10
61.499998
 20
0.500030
 30
0.0
 10
483.499990
 20
0.500030
 30
0.0
  0
LWPOLYLINE
  5
2b2
100
AcDbEntity
  8
newlayer
 62
7
100
AcDbPolyline
 90
2
 70
0
 10
544.499990
 20
67.500040
 30
0.0
 10
544.499990
 20
477.500020
 30
0.0
  0
SPLINE
  5
2b3
100
AcDbEntity
  8
newlayer
 62
7
100
AcDbSpline
 70
8
 71
3
 72
8
 73
4
 74
0
 40
0
 40
0
 40
0
 40
0
 40
1
 40
1
 40
1
 40
1
 10
164.086900
 20
447.687520
 30
0.0
 10
127.285480
 20
447.687520
 30
0.0
 10
97.643555
 20
418.045580
 30
0.0
 10
97.643555
 20
381.244160
 30
0.0
  0
LWPOLYLINE
  5
2b4
100
AcDbEntity
  8
newlayer
 62
7
100
AcDbPolyline
 90
10
 70
0
 10
61.499998
 20
544.500020
 30
0.0
 10
77.714286
 20
544.500020
 30
0.0
 10
77.714286
 20
550.500020
 30
0.0
 10
61.499998
 20
550.500020
 30
0.0
 10
61.499998
 20
722.479920
 30
0.0
 10
483.500000
 20
722.479920
 30
0.0
 10
483.500000
 20
550.500020
 30
0.0
 10
467.285700
 20
550.500020
 30
0.0
 10
467.285700
 20
544.500020
 30
0.0
 10
483.500000
 20
544.500020
 30
0.0
  0
SPLINE
  5
2b5
100
AcDbEntity
  8
newlayer
 62
7
100
AcDbSpline
 70
8
 71
3
 72
8
 73
4
 74
0
 40
0
 40
0
 40
0
 40
0
 40
1
 40
1
 40
1
 40
1
 10
97.643555
 20
163.755870
 30
0.0
 10
97.643555
 20
126.954440
 30
0.0
 10
127.285480
 20
97.312510
 30
0.0
 10
164.086900
 20
97.312510
 30
0.0
  0
LWPOLYLINE
  5
2b6
100
AcDbEntity
  8
newlayer
 62
7
100
AcDbPolyline
 90
2
 70
0
 10
97.643555
 20
381.244160
 30
0.0
 10
97.643555
 20
163.755870
 30
0.0
  0
SPLINE
  5
2b7
100
AcDbEntity
  8
newlayer
 62
7
100
AcDbSpline
 70
8
 71
3
 72
8
 73
4
 74
0
 40
0
 40
0
 40
0
 40
0
 40
1
 40
1
 40
1
 40
1
 10
380.913080
 20
97.312510
 30
0.0
 10
417.714510
 20
97.312510
 30
0.0
 10
447.356440
 20
126.954440
 30
0.0
 10
447.356440
 20
163.755870
 30
0.0
  0
LWPOLYLINE
  5
2b8
100
AcDbEntity
  8
newlayer
 62
7
100
AcDbPolyline
 90
2
 70
0
 10
164.086900
 20
97.312510
 30
0.0
 10
380.913080
 20
97.312510
 30
0.0
  0
SPLINE
  5
2b9
100
AcDbEntity
  8
newlayer
 62
7
100
AcDbSpline
 70
8
 71
3
 72
8
 73
4
 74
0
 40
0
 40
0
 40
0
 40
0
 40
1
 40
1
 40
1
 40
1
 10
447.356440
 20
381.244160
 30
0.0
 10
447.356440
 20
418.045580
 30
0.0
 10
417.714510
 20
447.687520
 30
0.0
 10
380.913080
 20
447.687520
 30
0.0
  0
LWPOLYLINE
  5
2ba
100
AcDbEntity
  8
newlayer
 62
7
100
AcDbPolyline
 90
2
 70
0
 10
447.356440
 20
163.755870
 30
0.0
 10
447.356440
 20
381.244160
 30
0.0
  0
LWPOLYLINE
  5
2bb
100
AcDbEntity
  8
newlayer
 62
7
100
AcDbPolyline
 90
2
 70
0
 10
380.913080
 20
447.687520
 30
0.0
 10
164.086900
 20
447.687520
 30
0.0
  0
SPLINE
  5
2bc
100
AcDbEntity
  8
newlayer
 62
7
100
AcDbSpline
 70
8
 71
3
 72
8
 73
4
 74
0
 40
0
 40
0
 40
0
 40
0
 40
1
 40
1
 40
1
 40
1
 10
380.913080
 20
446.685570
 30
0.0
 10
417.176480
 20
446.685570
 30
0.0
 10
446.354490
 20
417.507560
 30
0.0
 10
446.354490
 20
381.244160
 30
0.0
  0
LWPOLYLINE
  5
2bd
100
AcDbEntity
  8
newlayer
 62
7
100
AcDbPolyline
 90
2
 70
0
 10
164.086900
 20
446.685570
 30
0.0
 10
380.913080
 20
446.685570
 30
0.0
  0
SPLINE
  5
2be
100
AcDbEntity
  8
newlayer
 62
7
100
AcDbSpline
 70
8
 71
3
 72
8
 73
4
 74
0
 40
0
 40
0
 40
0
 40
0
 40
1
 40
1
 40
1
 40
1
 10
446.354490
 20
163.755870
 30
0.0
 10
446.354490
 20
127.492470
 30
0.0
 10
417.176480
 20
98.314460
 30
0.0
 10
380.913080
 20
98.314460
 30
0.0
  0
LWPOLYLINE
  5
2bf
100
AcDbEntity
  8
newlayer
 62
7
100
AcDbPolyline
 90
2
 70
0
 10
446.354490
 20
381.244160
 30
0.0
 10
446.354490
 20
163.755870
 30
0.0
  0
SPLINE
  5
2c0
100
AcDbEntity
  8
newlayer
 62
7
100
AcDbSpline
 70
8
 71
3
 72
8
 73
4
 74
0
 40
0
 40
0
 40
0
 40
0
 40
1
 40
1
 40
1
 40
1
 10
164.086900
 20
98.314460
 30
0.0
 10
127.823520
 20
98.314460
 30
0.0
 10
98.645505
 20
127.492470
 30
0.0
 10
98.645505
 20
163.755870
 30
0.0
  0
LWPOLYLINE
  5
2c1
100
AcDbEntity
  8
newlayer
 62
7
100
AcDbPolyline
 90
2
 70
0
 10
380.913080
 20
98.314460
 30
0.0
 10
164.086900
 20
98.314460
 30
0.0
  0
SPLINE
  5
2c2
100
AcDbEntity
  8
newlayer
 62
7
100
AcDbSpline
 70
8
 71
3
 72
8
 73
4
 74
0
 40
0
 40
0
 40
0
 40
0
 40
1
 40
1
 40
1
 40
1
 10
98.645505
 20
381.244160
 30
0.0
 10
98.645505
 20
417.507560
 30
0.0
 10
127.823520
 20
446.685570
 30
0.0
 10
164.086900
 20
446.685570
 30
0.0
  0
LWPOLYLINE
  5
2c3
100
AcDbEntity
  8
newlayer
 62
7
100
AcDbPolyline
 90
2
 70
0
 10
98.645505
 20
163.755870
 30
0.0
 10
98.645505
 20
381.244160
 30
0.0
  0
LWPOLYLINE
  5
2c4
100
AcDbEntity
  8
newlayer
 62
7
100
AcDbPolyline
 90
1
 70
1
 10
164.086900
 20
446.685570
 30
0.0
  0
SPLINE
  5
2c5
100
AcDbEntity
  8
newlayer
 62
7
100
AcDbSpline
 70
8
 71
3
 72
8
 73
4
 74
0
 40
0
 40
0
 40
0
 40
0
 40
1
 40
1
 40
1
 40
1
 10
405.303815
 20
676.673682
 30
0.0
 10
405.303815
 20
676.428147
 30
0.0
 10
405.285100
 20
676.728246
 30
0.0
 10
405.247671
 20
677.573981
 30
0.0
  0
SPLINE
  5
2c6
100
AcDbEntity
  8
newlayer
 62
7
100
AcDbSpline
 70
8
 71
3
 72
8
 73
4
 74
0
 40
0
 40
0
 40
0
 40
0
 40
1
 40
1
 40
1
 40
1
 10
405.247671
 20
677.573981
 30
0.0
 10
405.210242
 20
678.337871
 30
0.0
 10
405.200885
 20
679.033556
 30
0.0
 10
405.219599
 20
679.661036
 30
0.0
  0
SPLINE
  5
2c7
100
AcDbEntity
  8
newlayer
 62
7
100
AcDbSpline
 70
8
 71
3
 72
8
 73
4
 74
0
 40
0
 40
0
 40
0
 40
0
 40
1
 40
1
 40
1
 40
1
 10
405.219599
 20
679.661036
 30
0.0
 10
405.257028
 20
680.534053
 30
0.0
 10
405.350565
 20
681.147892
 30
0.0
 10
405.500210
 20
681.502554
 30
0.0
  0
SPLINE
  5
2c8
100
AcDbEntity
  8
newlayer
 62
7
100
AcDbSpline
 70
8
 71
3
 72
8
 73
4
 74
0
 40
0
 40
0
 40
0
 40
0
 40
1
 40
1
 40
1
 40
1
 10
405.500210
 20
681.502554
 30
0.0
 10
405.462781
 20
679.483704
 30
0.0
 10
405.575027
 20
678.351511
 30
0.0
 10
405.836948
 20
678.105976
 30
0.0
  0
SPLINE
  5
2c9
100
AcDbEntity
  8
newlayer
 62
7
100
AcDbSpline
 70
8
 71
3
 72
8
 73
4
 74
0
 40
0
 40
0
 40
0
 40
0
 40
1
 40
1
 40
1
 40
1
 10
405.836948
 20
678.105976
 30
0.0
 10
406.080143
 20
678.215102
 30
0.0
 10
406.229802
 20
678.528843
 30
0.0
 10
406.285923
 20
679.047196
 30
0.0
  0
SPLINE
  5
2ca
100
AcDbEntity
  8
newlayer
 62
7
100
AcDbSpline
 70
8
 71
3
 72
8
 73
4
 74
0
 40
0
 40
0
 40
0
 40
0
 40
1
 40
1
 40
1
 40
1
 10
406.285923
 20
679.047196
 30
0.0
 10
406.360754
 20
679.592831
 30
0.0
 10
406.426230
 20
680.111185
 30
0.0
 10
406.482351
 20
680.602257
 30
0.0
  0
SPLINE
  5
2cb
100
AcDbEntity
  8
newlayer
 62
7
100
AcDbSpline
 70
8
 71
3
 72
8
 73
4
 74
0
 40
0
 40
0
 40
0
 40
0
 40
1
 40
1
 40
1
 40
1
 10
406.482351
 20
680.602257
 30
0.0
 10
406.575891
 20
680.220312
 30
0.0
 10
406.622661
 20
679.838367
 30
0.0
 10
406.622661
 20
679.456423
 30
0.0
  0
SPLINE
  5
2cc
100
AcDbEntity
  8
newlayer
 62
7
100
AcDbSpline
 70
8
 71
3
 72
8
 73
4
 74
0
 40
0
 40
0
 40
0
 40
0
 40
1
 40
1
 40
1
 40
1
 10
406.622661
 20
679.456423
 30
0.0
 10
406.622661
 20
679.019914
 30
0.0
 10
406.547830
 20
678.515202
 30
0.0
 10
406.398169
 20
677.942284
 30
0.0
  0
SPLINE
  5
2cd
100
AcDbEntity
  8
newlayer
 62
7
100
AcDbSpline
 70
8
 71
3
 72
8
 73
4
 74
0
 40
0
 40
0
 40
0
 40
0
 40
1
 40
1
 40
1
 40
1
 10
406.398169
 20
677.942284
 30
0.0
 10
406.229804
 20
677.287522
 30
0.0
 10
406.136267
 20
676.891936
 30
0.0
 10
406.117558
 20
676.755527
 30
0.0
  0
LWPOLYLINE
  5
2ce
100
AcDbEntity
  8
newlayer
 62
7
100
AcDbPolyline
 90
2
 70
0
 10
61.499998
 20
494.500020
 30
0.0
 10
483.500000
 20
494.500020
 30
0.0
  0
SPLINE
  5
2cf
100
AcDbEntity
  8
newlayer
 62
7
100
AcDbSpline
 70
8
 71
3
 72
8
 73
4
 74
0
 40
0
 40
0
 40
0
 40
0
 40
1
 40
1
 40
1
 40
1
 10
402.525705
 20
663.823971
 30
0.0
 10
402.563134
 20
665.133495
 30
0.0
 10
402.544420
 20
666.934092
 30
0.0
 10
402.469562
 20
669.225760
 30
0.0
  0
SPLINE
  5
2d0
100
AcDbEntity
  8
newlayer
 62
7
100
AcDbSpline
 70
8
 71
3
 72
8
 73
4
 74
0
 40
0
 40
0
 40
0
 40
0
 40
1
 40
1
 40
1
 40
1
 10
402.469562
 20
669.225760
 30
0.0
 10
402.450847
 20
670.617131
 30
0.0
 10
402.245067
 20
672.390445
 30
0.0
 10
401.852222
 20
674.545704
 30
0.0
  0
SPLINE
  5
2d1
100
AcDbEntity
  8
newlayer
 62
7
100
AcDbSpline
 70
8
 71
3
 72
8
 73
4
 74
0
 40
0
 40
0
 40
0
 40
0
 40
1
 40
1
 40
1
 40
1
 10
401.852222
 20
674.545704
 30
0.0
 10
401.833507
 20
674.791240
 30
0.0
 10
401.758676
 20
675.364157
 30
0.0
 10
401.627730
 20
676.264456
 30
0.0
  0
SPLINE
  5
2d2
100
AcDbEntity
  8
newlayer
 62
7
100
AcDbSpline
 70
8
 71
3
 72
8
 73
4
 74
0
 40
0
 40
0
 40
0
 40
0
 40
1
 40
1
 40
1
 40
1
 10
401.627730
 20
676.264456
 30
0.0
 10
401.534190
 20
676.755528
 30
0.0
 10
401.506129
 20
677.205677
 30
0.0
 10
401.543547
 20
677.614903
 30
0.0
  0
SPLINE
  5
2d3
100
AcDbEntity
  8
newlayer
 62
7
100
AcDbSpline
 70
8
 71
3
 72
8
 73
4
 74
0
 40
0
 40
0
 40
0
 40
0
 40
1
 40
1
 40
1
 40
1
 10
401.543547
 20
677.614903
 30
0.0
 10
401.543547
 20
678.133257
 30
0.0
 10
401.534190
 20
678.651611
 30
0.0
 10
401.515475
 20
679.169964
 30
0.0
  0
SPLINE
  5
2d4
100
AcDbEntity
  8
newlayer
 62
7
100
AcDbSpline
 70
8
 71
3
 72
8
 73
4
 74
0
 40
0
 40
0
 40
0
 40
0
 40
1
 40
1
 40
1
 40
1
 10
401.515475
 20
679.169964
 30
0.0
 10
401.609015
 20
680.615898
 30
0.0
 10
401.861565
 20
681.434351
 30
0.0
 10
402.273125
 20
681.625323
 30
0.0
  0
SPLINE
  5
2d5
100
AcDbEntity
  8
newlayer
 62
7
100
AcDbSpline
 70
8
 71
3
 72
8
 73
4
 74
0
 40
0
 40
0
 40
0
 40
0
 40
1
 40
1
 40
1
 40
1
 10
402.273125
 20
681.625323
 30
0.0
 10
402.273125
 20
681.734450
 30
0.0
 10
402.235713
 20
681.502555
 30
0.0
 10
402.160887
 20
680.929638
 30
0.0
  0
SPLINE
  5
2d6
100
AcDbEntity
  8
newlayer
 62
7
100
AcDbSpline
 70
8
 71
3
 72
8
 73
4
 74
0
 40
0
 40
0
 40
0
 40
0
 40
1
 40
1
 40
1
 40
1
 10
402.160887
 20
680.929638
 30
0.0
 10
402.104760
 20
680.384003
 30
0.0
 10
402.076697
 20
679.865649
 30
0.0
 10
402.076697
 20
679.374578
 30
0.0
  0
SPLINE
  5
2d7
100
AcDbEntity
  8
newlayer
 62
7
100
AcDbSpline
 70
8
 71
3
 72
8
 73
4
 74
0
 40
0
 40
0
 40
0
 40
0
 40
1
 40
1
 40
1
 40
1
 10
402.076697
 20
679.374578
 30
0.0
 10
402.076697
 20
677.955926
 30
0.0
 10
402.329249
 20
677.219318
 30
0.0
 10
402.834355
 20
677.164755
 30
0.0
  0
SPLINE
  5
2d8
100
AcDbEntity
  8
newlayer
 62
7
100
AcDbSpline
 70
8
 71
3
 72
8
 73
4
 74
0
 40
0
 40
0
 40
0
 40
0
 40
1
 40
1
 40
1
 40
1
 10
402.834355
 20
677.164755
 30
0.0
 10
403.376867
 20
677.082909
 30
0.0
 10
403.648123
 20
677.887721
 30
0.0
 10
403.648123
 20
679.579190
 30
0.0
  0
SPLINE
  5
2d9
100
AcDbEntity
  8
newlayer
 62
7
100
AcDbSpline
 70
8
 71
3
 72
8
 73
4
 74
0
 40
0
 40
0
 40
0
 40
0
 40
1
 40
1
 40
1
 40
1
 10
403.648123
 20
679.579190
 30
0.0
 10
403.648123
 20
680.861433
 30
0.0
 10
403.554586
 20
681.993626
 30
0.0
 10
403.367513
 20
682.975770
 30
0.0
  0
SPLINE
  5
2da
100
AcDbEntity
  8
newlayer
 62
7
100
AcDbSpline
 70
8
 71
3
 72
8
 73
4
 74
0
 40
0
 40
0
 40
0
 40
0
 40
1
 40
1
 40
1
 40
1
 10
403.367513
 20
682.975770
 30
0.0
 10
403.779078
 20
682.757516
 30
0.0
 10
404.059692
 20
682.184599
 30
0.0
 10
404.209353
 20
681.257019
 30
0.0
  0
SPLINE
  5
2db
100
AcDbEntity
  8
newlayer
 62
7
100
AcDbSpline
 70
8
 71
3
 72
8
 73
4
 74
0
 40
0
 40
0
 40
0
 40
0
 40
1
 40
1
 40
1
 40
1
 10
404.209353
 20
681.257019
 30
0.0
 10
404.321596
 20
680.629539
 30
0.0
 10
404.405778
 20
679.974776
 30
0.0
 10
404.461900
 20
679.292731
 30
0.0
  0
SPLINE
  5
2dc
100
AcDbEntity
  8
newlayer
 62
7
100
AcDbSpline
 70
8
 71
3
 72
8
 73
4
 74
0
 40
0
 40
0
 40
0
 40
0
 40
1
 40
1
 40
1
 40
1
 10
404.461900
 20
679.292731
 30
0.0
 10
404.518022
 20
678.583406
 30
0.0
 10
404.499307
 20
677.655826
 30
0.0
 10
404.405756
 20
676.509991
 30
0.0
  0
SPLINE
  5
2dd
100
AcDbEntity
  8
newlayer
 62
7
100
AcDbSpline
 70
8
 71
3
 72
8
 73
4
 74
0
 40
0
 40
0
 40
0
 40
0
 40
1
 40
1
 40
1
 40
1
 10
404.405756
 20
676.509991
 30
0.0
 10
404.368327
 20
676.100766
 30
0.0
 10
404.368327
 20
675.759744
 30
0.0
 10
404.405756
 20
675.486925
 30
0.0
  0
SPLINE
  5
2de
100
AcDbEntity
  8
newlayer
 62
7
100
AcDbSpline
 70
8
 71
3
 72
8
 73
4
 74
0
 40
0
 40
0
 40
0
 40
0
 40
1
 40
1
 40
1
 40
1
 10
404.405756
 20
675.486925
 30
0.0
 10
404.480587
 20
675.077699
 30
0.0
 10
404.639600
 20
674.886726
 30
0.0
 10
404.882795
 20
674.914008
 30
0.0
  0
SPLINE
  5
2df
100
AcDbEntity
  8
newlayer
 62
7
100
AcDbSpline
 70
8
 71
3
 72
8
 73
4
 74
0
 40
0
 40
0
 40
0
 40
0
 40
1
 40
1
 40
1
 40
1
 10
404.882795
 20
674.914008
 30
0.0
 10
405.182112
 20
674.914008
 30
0.0
 10
405.331771
 20
675.323235
 30
0.0
 10
405.331771
 20
676.141688
 30
0.0
  0
SPLINE
  5
2e0
100
AcDbEntity
  8
newlayer
 62
7
100
AcDbSpline
 70
8
 71
3
 72
8
 73
4
 74
0
 40
0
 40
0
 40
0
 40
0
 40
1
 40
1
 40
1
 40
1
 10
405.331771
 20
676.141688
 30
0.0
 10
405.331771
 20
676.332660
 30
0.0
 10
405.322413
 20
676.509992
 30
0.0
 10
405.303699
 20
676.673682
 30
0.0
  0
LWPOLYLINE
  5
2e1
100
AcDbEntity
  8
newlayer
 62
7
100
AcDbPolyline
 90
8
 70
0
 10
406.117558
 20
676.755527
 30
0.0
 10
405.865011
 20
673.850020
 30
0.0
 10
405.247663
 20
668.325462
 30
0.0
 10
404.686442
 20
662.187065
 30
0.0
 10
404.405831
 20
655.025602
 30
0.0
 10
404.405831
 20
650.483187
 30
0.0
 10
402.581849
 20
650.360420
 30
0.0
 10
402.525705
 20
663.823971
 30
0.0
  0
SPLINE
  5
2e2
100
AcDbEntity
  8
newlayer
 62
7
100
AcDbSpline
 70
8
 71
3
 72
8
 73
4
 74
0
 40
0
 40
0
 40
0
 40
0
 40
1
 40
1
 40
1
 40
1
 10
409.874721
 20
668.448230
 30
0.0
 10
410.716555
 20
668.693766
 30
0.0
 10
411.174888
 20
668.939302
 30
0.0
 10
411.249719
 20
669.184838
 30
0.0
  0
SPLINE
  5
2e3
100
AcDbEntity
  8
newlayer
 62
7
100
AcDbSpline
 70
8
 71
3
 72
8
 73
4
 74
0
 40
0
 40
0
 40
0
 40
0
 40
1
 40
1
 40
1
 40
1
 10
411.249719
 20
669.184838
 30
0.0
 10
411.810940
 20
669.594064
 30
0.0
 10
412.166381
 20
670.016932
 30
0.0
 10
412.316043
 20
670.453440
 30
0.0
  0
SPLINE
  5
2e4
100
AcDbEntity
  8
newlayer
 62
7
100
AcDbSpline
 70
8
 71
3
 72
8
 73
4
 74
0
 40
0
 40
0
 40
0
 40
0
 40
1
 40
1
 40
1
 40
1
 10
412.316043
 20
670.453440
 30
0.0
 10
412.895973
 20
671.435584
 30
0.0
 10
413.616210
 20
672.635981
 30
0.0
 10
414.476754
 20
674.054633
 30
0.0
  0
SPLINE
  5
2e5
100
AcDbEntity
  8
newlayer
 62
7
100
AcDbSpline
 70
8
 71
3
 72
8
 73
4
 74
0
 40
0
 40
0
 40
0
 40
0
 40
1
 40
1
 40
1
 40
1
 10
414.476754
 20
674.054633
 30
0.0
 10
414.476754
 20
674.081917
 30
0.0
 10
414.467397
 20
674.532066
 30
0.0
 10
414.448682
 20
675.405080
 30
0.0
  0
SPLINE
  5
2e6
100
AcDbEntity
  8
newlayer
 62
7
100
AcDbSpline
 70
8
 71
3
 72
8
 73
4
 74
0
 40
0
 40
0
 40
0
 40
0
 40
1
 40
1
 40
1
 40
1
 10
414.448682
 20
675.405080
 30
0.0
 10
414.411253
 20
676.223533
 30
0.0
 10
414.495438
 20
676.700964
 30
0.0
 10
414.701237
 20
676.837374
 30
0.0
  0
SPLINE
  5
2e7
100
AcDbEntity
  8
newlayer
 62
7
100
AcDbSpline
 70
8
 71
3
 72
8
 73
4
 74
0
 40
0
 40
0
 40
0
 40
0
 40
1
 40
1
 40
1
 40
1
 10
414.701237
 20
676.837374
 30
0.0
 10
414.645116
 20
676.428147
 30
0.0
 10
414.682531
 20
676.018921
 30
0.0
 10
414.813483
 20
675.609694
 30
0.0
  0
SPLINE
  5
2e8
100
AcDbEntity
  8
newlayer
 62
7
100
AcDbSpline
 70
8
 71
3
 72
8
 73
4
 74
0
 40
0
 40
0
 40
0
 40
0
 40
1
 40
1
 40
1
 40
1
 10
414.813483
 20
675.609694
 30
0.0
 10
414.944436
 20
675.200468
 30
0.0
 10
415.103449
 20
675.009495
 30
0.0
 10
415.290522
 20
675.036777
 30
0.0
  0
SPLINE
  5
2e9
100
AcDbEntity
  8
newlayer
 62
7
100
AcDbSpline
 70
8
 71
3
 72
8
 73
4
 74
0
 40
0
 40
0
 40
0
 40
0
 40
1
 40
1
 40
1
 40
1
 10
415.290522
 20
675.036777
 30
0.0
 10
415.384056
 20
675.064061
 30
0.0
 10
415.430824
 20
675.295956
 30
0.0
 10
415.430824
 20
675.732462
 30
0.0
  0
SPLINE
  5
2ea
100
AcDbEntity
  8
newlayer
 62
7
100
AcDbSpline
 70
8
 71
3
 72
8
 73
4
 74
0
 40
0
 40
0
 40
0
 40
0
 40
1
 40
1
 40
1
 40
1
 10
415.430824
 20
675.732462
 30
0.0
 10
415.430824
 20
676.960141
 30
0.0
 10
415.281165
 20
678.092334
 30
0.0
 10
414.981848
 20
679.129041
 30
0.0
  0
SPLINE
  5
2eb
100
AcDbEntity
  8
newlayer
 62
7
100
AcDbSpline
 70
8
 71
3
 72
8
 73
4
 74
0
 40
0
 40
0
 40
0
 40
0
 40
1
 40
1
 40
1
 40
1
 10
414.981848
 20
679.129041
 30
0.0
 10
415.131509
 20
679.019914
 30
0.0
 10
415.281168
 20
678.910787
 30
0.0
 10
415.430824
 20
678.801660
 30
0.0
  0
SPLINE
  5
2ec
100
AcDbEntity
  8
newlayer
 62
7
100
AcDbSpline
 70
8
 71
3
 72
8
 73
4
 74
0
 40
0
 40
0
 40
0
 40
0
 40
1
 40
1
 40
1
 40
1
 10
415.430824
 20
678.801660
 30
0.0
 10
415.524363
 20
678.610688
 30
0.0
 10
415.599194
 20
677.983207
 30
0.0
 10
415.655315
 20
676.919219
 30
0.0
  0
SPLINE
  5
2ed
100
AcDbEntity
  8
newlayer
 62
7
100
AcDbSpline
 70
8
 71
3
 72
8
 73
4
 74
0
 40
0
 40
0
 40
0
 40
0
 40
1
 40
1
 40
1
 40
1
 10
415.655315
 20
676.919219
 30
0.0
 10
415.730146
 20
676.755528
 30
0.0
 10
415.795622
 20
676.673682
 30
0.0
 10
415.851744
 20
676.673682
 30
0.0
  0
SPLINE
  5
2ee
100
AcDbEntity
  8
newlayer
 62
7
100
AcDbSpline
 70
8
 71
3
 72
8
 73
4
 74
0
 40
0
 40
0
 40
0
 40
0
 40
1
 40
1
 40
1
 40
1
 10
415.851744
 20
676.673682
 30
0.0
 10
415.907865
 20
676.673682
 30
0.0
 10
416.020111
 20
677.055627
 30
0.0
 10
416.188481
 20
677.819517
 30
0.0
  0
SPLINE
  5
2ef
100
AcDbEntity
  8
newlayer
 62
7
100
AcDbSpline
 70
8
 71
3
 72
8
 73
4
 74
0
 40
0
 40
0
 40
0
 40
0
 40
1
 40
1
 40
1
 40
1
 10
416.188481
 20
677.819517
 30
0.0
 10
416.431677
 20
678.910787
 30
0.0
 10
416.525214
 20
679.974776
 30
0.0
 10
416.469092
 20
681.011483
 30
0.0
  0
SPLINE
  5
2f0
100
AcDbEntity
  8
newlayer
 62
7
100
AcDbSpline
 70
8
 71
3
 72
8
 73
4
 74
0
 40
0
 40
0
 40
0
 40
0
 40
1
 40
1
 40
1
 40
1
 10
416.469092
 20
681.011483
 30
0.0
 10
416.693578
 20
680.956923
 30
0.0
 10
416.815176
 20
680.602260
 30
0.0
 10
416.833885
 20
679.947494
 30
0.0
  0
SPLINE
  5
2f1
100
AcDbEntity
  8
newlayer
 62
7
100
AcDbSpline
 70
8
 71
3
 72
8
 73
4
 74
0
 40
0
 40
0
 40
0
 40
0
 40
1
 40
1
 40
1
 40
1
 10
416.833885
 20
679.947494
 30
0.0
 10
416.833885
 20
679.592831
 30
0.0
 10
416.833885
 20
679.251809
 30
0.0
 10
416.833885
 20
678.924428
 30
0.0
  0
SPLINE
  5
2f2
100
AcDbEntity
  8
newlayer
 62
7
100
AcDbSpline
 70
8
 71
3
 72
8
 73
4
 74
0
 40
0
 40
0
 40
0
 40
0
 40
1
 40
1
 40
1
 40
1
 10
416.833885
 20
678.924428
 30
0.0
 10
416.796456
 20
678.869868
 30
0.0
 10
416.833871
 20
678.651614
 30
0.0
 10
416.946131
 20
678.269666
 30
0.0
  0
SPLINE
  5
2f3
100
AcDbEntity
  8
newlayer
 62
7
100
AcDbSpline
 70
8
 71
3
 72
8
 73
4
 74
0
 40
0
 40
0
 40
0
 40
0
 40
1
 40
1
 40
1
 40
1
 10
416.946131
 20
678.269666
 30
0.0
 10
416.983560
 20
678.160539
 30
0.0
 10
417.049036
 20
678.105976
 30
0.0
 10
417.142559
 20
678.105976
 30
0.0
  0
SPLINE
  5
2f4
100
AcDbEntity
  8
newlayer
 62
7
100
AcDbSpline
 70
8
 71
3
 72
8
 73
4
 74
0
 40
0
 40
0
 40
0
 40
0
 40
1
 40
1
 40
1
 40
1
 10
417.142559
 20
678.105976
 30
0.0
 10
417.292215
 20
678.105976
 30
0.0
 10
417.479289
 20
678.228743
 30
0.0
 10
417.703781
 20
678.474279
 30
0.0
  0
SPLINE
  5
2f5
100
AcDbEntity
  8
newlayer
 62
7
100
AcDbSpline
 70
8
 71
3
 72
8
 73
4
 74
0
 40
0
 40
0
 40
0
 40
0
 40
1
 40
1
 40
1
 40
1
 10
417.703781
 20
678.474279
 30
0.0
 10
417.610241
 20
677.301163
 30
0.0
 10
417.254800
 20
676.168970
 30
0.0
 10
416.637457
 20
675.077699
 30
0.0
  0
SPLINE
  5
2f6
100
AcDbEntity
  8
newlayer
 62
7
100
AcDbSpline
 70
8
 71
3
 72
8
 73
4
 74
0
 40
0
 40
0
 40
0
 40
0
 40
1
 40
1
 40
1
 40
1
 10
416.637457
 20
675.077699
 30
0.0
 10
416.263309
 20
674.477500
 30
0.0
 10
415.889159
 20
673.863661
 30
0.0
 10
415.515006
 20
673.236180
 30
0.0
  0
SPLINE
  5
2f7
100
AcDbEntity
  8
newlayer
 62
7
100
AcDbSpline
 70
8
 71
3
 72
8
 73
4
 74
0
 40
0
 40
0
 40
0
 40
0
 40
1
 40
1
 40
1
 40
1
 10
415.515006
 20
673.236180
 30
0.0
 10
415.253102
 20
672.581418
 30
0.0
 10
414.729293
 20
671.722042
 30
0.0
 10
413.943580
 20
670.658053
 30
0.0
  0
SPLINE
  5
2f8
100
AcDbEntity
  8
newlayer
 62
7
100
AcDbSpline
 70
8
 71
3
 72
8
 73
4
 74
0
 40
0
 40
0
 40
0
 40
0
 40
1
 40
1
 40
1
 40
1
 10
413.943580
 20
670.658053
 30
0.0
 10
413.644263
 20
670.057854
 30
0.0
 10
413.242054
 20
669.471296
 30
0.0
 10
412.736954
 20
668.898379
 30
0.0
  0
SPLINE
  5
2f9
100
AcDbEntity
  8
newlayer
 62
7
100
AcDbSpline
 70
8
 71
3
 72
8
 73
4
 74
0
 40
0
 40
0
 40
0
 40
0
 40
1
 40
1
 40
1
 40
1
 10
412.736954
 20
668.898379
 30
0.0
 10
412.325389
 20
668.434589
 30
0.0
 10
411.923178
 20
667.984440
 30
0.0
 10
411.530321
 20
667.547932
 30
0.0
  0
SPLINE
  5
2fa
100
AcDbEntity
  8
newlayer
 62
7
100
AcDbSpline
 70
8
 71
3
 72
8
 73
4
 74
0
 40
0
 40
0
 40
0
 40
0
 40
1
 40
1
 40
1
 40
1
 10
411.530321
 20
667.547932
 30
0.0
 10
410.838148
 20
666.620352
 30
0.0
 10
410.426585
 20
665.965589
 30
0.0
 10
410.295632
 20
665.583645
 30
0.0
  0
SPLINE
  5
2fb
100
AcDbEntity
  8
newlayer
 62
7
100
AcDbSpline
 70
8
 71
3
 72
8
 73
4
 74
0
 40
0
 40
0
 40
0
 40
0
 40
1
 40
1
 40
1
 40
1
 10
410.295632
 20
665.583645
 30
0.0
 10
410.632367
 20
665.065291
 30
0.0
 10
411.296480
 20
664.205915
 30
0.0
 10
412.287971
 20
663.005518
 30
0.0
  0
SPLINE
  5
2fc
100
AcDbEntity
  8
newlayer
 62
7
100
AcDbSpline
 70
8
 71
3
 72
8
 73
4
 74
0
 40
0
 40
0
 40
0
 40
0
 40
1
 40
1
 40
1
 40
1
 10
412.287971
 20
663.005518
 30
0.0
 10
413.129806
 20
661.996093
 30
0.0
 10
413.756506
 20
661.095795
 30
0.0
 10
414.168071
 20
660.304624
 30
0.0
  0
LWPOLYLINE
  5
2fd
100
AcDbEntity
  8
newlayer
 62
7
100
AcDbPolyline
 90
2
 70
0
 10
405.303699
 20
676.673682
 30
0.0
 10
405.303815
 20
676.673682
 30
0.0
  0
SPLINE
  5
2fe
100
AcDbEntity
  8
newlayer
 62
7
100
AcDbSpline
 70
8
 71
3
 72
8
 73
4
 74
0
 40
0
 40
0
 40
0
 40
0
 40
1
 40
1
 40
1
 40
1
 10
407.938493
 20
650.483193
 30
0.0
 10
407.919778
 20
650.810575
 30
0.0
 10
407.901064
 20
651.642669
 30
0.0
 10
407.882349
 20
652.979475
 30
0.0
  0
SPLINE
  5
2ff
100
AcDbEntity
  8
newlayer
 62
7
100
AcDbSpline
 70
8
 71
3
 72
8
 73
4
 74
0
 40
0
 40
0
 40
0
 40
0
 40
1
 40
1
 40
1
 40
1
 10
407.882349
 20
652.979475
 30
0.0
 10
407.901064
 20
654.207154
 30
0.0
 10
407.919778
 20
656.103237
 30
0.0
 10
407.938493
 20
658.667723
 30
0.0
  0
SPLINE
  5
300
100
AcDbEntity
  8
newlayer
 62
7
100
AcDbSpline
 70
8
 71
3
 72
8
 73
4
 74
0
 40
0
 40
0
 40
0
 40
0
 40
1
 40
1
 40
1
 40
1
 10
407.938493
 20
658.667723
 30
0.0
 10
407.938493
 20
659.349767
 30
0.0
 10
407.901078
 20
660.659292
 30
0.0
 10
407.826247
 20
662.596297
 30
0.0
  0
SPLINE
  5
301
100
AcDbEntity
  8
newlayer
 62
7
100
AcDbSpline
 70
8
 71
3
 72
8
 73
4
 74
0
 40
0
 40
0
 40
0
 40
0
 40
1
 40
1
 40
1
 40
1
 10
407.826247
 20
662.596297
 30
0.0
 10
407.770125
 20
664.315049
 30
0.0
 10
407.742065
 20
665.188065
 30
0.0
 10
407.742065
 20
665.215347
 30
0.0
  0
SPLINE
  5
302
100
AcDbEntity
  8
newlayer
 62
7
100
AcDbSpline
 70
8
 71
3
 72
8
 73
4
 74
0
 40
0
 40
0
 40
0
 40
0
 40
1
 40
1
 40
1
 40
1
 10
407.742065
 20
665.215347
 30
0.0
 10
407.779494
 20
665.406319
 30
0.0
 10
407.779494
 20
667.547938
 30
0.0
 10
407.742065
 20
671.640203
 30
0.0
  0
SPLINE
  5
303
100
AcDbEntity
  8
newlayer
 62
7
100
AcDbSpline
 70
8
 71
3
 72
8
 73
4
 74
0
 40
0
 40
0
 40
0
 40
0
 40
1
 40
1
 40
1
 40
1
 10
407.742065
 20
671.640203
 30
0.0
 10
407.723350
 20
673.331672
 30
0.0
 10
407.657874
 20
674.368379
 30
0.0
 10
407.545636
 20
674.750324
 30
0.0
  0
SPLINE
  5
304
100
AcDbEntity
  8
newlayer
 62
7
100
AcDbSpline
 70
8
 71
3
 72
8
 73
4
 74
0
 40
0
 40
0
 40
0
 40
0
 40
1
 40
1
 40
1
 40
1
 10
407.545636
 20
674.750324
 30
0.0
 10
407.358563
 20
675.486931
 30
0.0
 10
407.265026
 20
676.387230
 30
0.0
 10
407.265026
 20
677.451219
 30
0.0
  0
SPLINE
  5
305
100
AcDbEntity
  8
newlayer
 62
7
100
AcDbSpline
 70
8
 71
3
 72
8
 73
4
 74
0
 40
0
 40
0
 40
0
 40
0
 40
1
 40
1
 40
1
 40
1
 10
407.265026
 20
677.451219
 30
0.0
 10
407.265026
 20
678.078700
 30
0.0
 10
407.311793
 20
678.569771
 30
0.0
 10
407.405327
 20
678.924434
 30
0.0
  0
SPLINE
  5
306
100
AcDbEntity
  8
newlayer
 62
7
100
AcDbSpline
 70
8
 71
3
 72
8
 73
4
 74
0
 40
0
 40
0
 40
0
 40
0
 40
1
 40
1
 40
1
 40
1
 10
407.405327
 20
678.924434
 30
0.0
 10
407.461448
 20
678.460644
 30
0.0
 10
407.508218
 20
678.010495
 30
0.0
 10
407.545636
 20
677.573987
 30
0.0
  0
SPLINE
  5
307
100
AcDbEntity
  8
newlayer
 62
7
100
AcDbSpline
 70
8
 71
3
 72
8
 73
4
 74
0
 40
0
 40
0
 40
0
 40
0
 40
1
 40
1
 40
1
 40
1
 10
407.545636
 20
677.573987
 30
0.0
 10
407.620467
 20
677.001070
 30
0.0
 10
407.714004
 20
676.741893
 30
0.0
 10
407.826247
 20
676.796456
 30
0.0
  0
SPLINE
  5
308
100
AcDbEntity
  8
newlayer
 62
7
100
AcDbSpline
 70
8
 71
3
 72
8
 73
4
 74
0
 40
0
 40
0
 40
0
 40
0
 40
1
 40
1
 40
1
 40
1
 10
407.826247
 20
676.796456
 30
0.0
 10
407.901078
 20
676.823740
 30
0.0
 10
407.938493
 20
677.232966
 30
0.0
 10
407.938493
 20
678.024135
 30
0.0
  0
SPLINE
  5
309
100
AcDbEntity
  8
newlayer
 62
7
100
AcDbSpline
 70
8
 71
3
 72
8
 73
4
 74
0
 40
0
 40
0
 40
0
 40
0
 40
1
 40
1
 40
1
 40
1
 10
407.938493
 20
678.024135
 30
0.0
 10
407.938493
 20
678.487926
 30
0.0
 10
407.938493
 20
678.951716
 30
0.0
 10
407.938493
 20
679.415506
 30
0.0
  0
SPLINE
  5
30a
100
AcDbEntity
  8
newlayer
 62
7
100
AcDbSpline
 70
8
 71
3
 72
8
 73
4
 74
0
 40
0
 40
0
 40
0
 40
0
 40
1
 40
1
 40
1
 40
1
 10
407.938493
 20
679.415506
 30
0.0
 10
407.975922
 20
680.452213
 30
0.0
 10
408.125580
 20
681.079694
 30
0.0
 10
408.387468
 20
681.297948
 30
0.0
  0
SPLINE
  5
30b
100
AcDbEntity
  8
newlayer
 62
7
100
AcDbSpline
 70
8
 71
3
 72
8
 73
4
 74
0
 40
0
 40
0
 40
0
 40
0
 40
1
 40
1
 40
1
 40
1
 10
408.387468
 20
681.297948
 30
0.0
 10
408.331347
 20
677.260246
 30
0.0
 10
408.537130
 20
675.227754
 30
0.0
 10
409.004817
 20
675.200473
 30
0.0
  0
SPLINE
  5
30c
100
AcDbEntity
  8
newlayer
 62
7
100
AcDbSpline
 70
8
 71
3
 72
8
 73
4
 74
0
 40
0
 40
0
 40
0
 40
0
 40
1
 40
1
 40
1
 40
1
 10
409.004817
 20
675.200473
 30
0.0
 10
409.135769
 20
675.200473
 30
0.0
 10
409.201245
 20
675.418727
 30
0.0
 10
409.201245
 20
675.855235
 30
0.0
  0
SPLINE
  5
30d
100
AcDbEntity
  8
newlayer
 62
7
100
AcDbSpline
 70
8
 71
3
 72
8
 73
4
 74
0
 40
0
 40
0
 40
0
 40
0
 40
1
 40
1
 40
1
 40
1
 10
409.201245
 20
675.855235
 30
0.0
 10
409.201245
 20
676.128053
 30
0.0
 10
409.163830
 20
676.687330
 30
0.0
 10
409.088999
 20
677.533064
 30
0.0
  0
SPLINE
  5
30e
100
AcDbEntity
  8
newlayer
 62
7
100
AcDbSpline
 70
8
 71
3
 72
8
 73
4
 74
0
 40
0
 40
0
 40
0
 40
0
 40
1
 40
1
 40
1
 40
1
 10
409.088999
 20
677.533064
 30
0.0
 10
408.995465
 20
678.487926
 30
0.0
 10
408.939343
 20
679.210892
 30
0.0
 10
408.920634
 20
679.701965
 30
0.0
  0
SPLINE
  5
30f
100
AcDbEntity
  8
newlayer
 62
7
100
AcDbSpline
 70
8
 71
3
 72
8
 73
4
 74
0
 40
0
 40
0
 40
0
 40
0
 40
1
 40
1
 40
1
 40
1
 10
408.920634
 20
679.701965
 30
0.0
 10
408.845804
 20
681.584407
 30
0.0
 10
409.107708
 20
682.757522
 30
0.0
 10
409.706348
 20
683.221312
 30
0.0
  0
SPLINE
  5
310
100
AcDbEntity
  8
newlayer
 62
7
100
AcDbSpline
 70
8
 71
3
 72
8
 73
4
 74
0
 40
0
 40
0
 40
0
 40
0
 40
1
 40
1
 40
1
 40
1
 10
409.706348
 20
683.221312
 30
0.0
 10
409.575395
 20
682.812086
 30
0.0
 10
409.491210
 20
682.402859
 30
0.0
 10
409.453792
 20
681.993633
 30
0.0
  0
SPLINE
  5
311
100
AcDbEntity
  8
newlayer
 62
7
100
AcDbSpline
 70
8
 71
3
 72
8
 73
4
 74
0
 40
0
 40
0
 40
0
 40
0
 40
1
 40
1
 40
1
 40
1
 10
409.453792
 20
681.993633
 30
0.0
 10
409.416363
 20
681.720815
 30
0.0
 10
409.416363
 20
681.420716
 30
0.0
 10
409.453792
 20
681.093334
 30
0.0
  0
SPLINE
  5
312
100
AcDbEntity
  8
newlayer
 62
7
100
AcDbSpline
 70
8
 71
3
 72
8
 73
4
 74
0
 40
0
 40
0
 40
0
 40
0
 40
1
 40
1
 40
1
 40
1
 10
409.453792
 20
681.093334
 30
0.0
 10
409.472507
 20
680.711389
 30
0.0
 10
409.481864
 20
680.506776
 30
0.0
 10
409.481864
 20
680.479495
 30
0.0
  0
SPLINE
  5
313
100
AcDbEntity
  8
newlayer
 62
7
100
AcDbSpline
 70
8
 71
3
 72
8
 73
4
 74
0
 40
0
 40
0
 40
0
 40
0
 40
1
 40
1
 40
1
 40
1
 10
409.481864
 20
680.479495
 30
0.0
 10
409.463149
 20
678.242390
 30
0.0
 10
409.575395
 20
677.110196
 30
0.0
 10
409.818602
 20
677.082915
 30
0.0
  0
SPLINE
  5
314
100
AcDbEntity
  8
newlayer
 62
7
100
AcDbSpline
 70
8
 71
3
 72
8
 73
4
 74
0
 40
0
 40
0
 40
0
 40
0
 40
1
 40
1
 40
1
 40
1
 10
409.818602
 20
677.082915
 30
0.0
 10
409.912136
 20
677.082915
 30
0.0
 10
409.968258
 20
677.123837
 30
0.0
 10
409.986967
 20
677.205683
 30
0.0
  0
SPLINE
  5
315
100
AcDbEntity
  8
newlayer
 62
7
100
AcDbSpline
 70
8
 71
3
 72
8
 73
4
 74
0
 40
0
 40
0
 40
0
 40
0
 40
1
 40
1
 40
1
 40
1
 10
409.986967
 20
677.205683
 30
0.0
 10
410.024396
 20
677.314810
 30
0.0
 10
409.996335
 20
677.915008
 30
0.0
 10
409.902784
 20
679.006279
 30
0.0
  0
SPLINE
  5
316
100
AcDbEntity
  8
newlayer
 62
7
100
AcDbSpline
 70
8
 71
3
 72
8
 73
4
 74
0
 40
0
 40
0
 40
0
 40
0
 40
1
 40
1
 40
1
 40
1
 10
409.902784
 20
679.006279
 30
0.0
 10
410.295641
 20
678.597053
 30
0.0
 10
410.492069
 20
677.846805
 30
0.0
 10
410.492069
 20
676.755533
 30
0.0
  0
SPLINE
  5
317
100
AcDbEntity
  8
newlayer
 62
7
100
AcDbSpline
 70
8
 71
3
 72
8
 73
4
 74
0
 40
0
 40
0
 40
0
 40
0
 40
1
 40
1
 40
1
 40
1
 10
410.492069
 20
676.755533
 30
0.0
 10
410.492069
 20
675.773390
 30
0.0
 10
410.342408
 20
674.668479
 30
0.0
 10
410.043085
 20
673.440800
 30
0.0
  0
SPLINE
  5
318
100
AcDbEntity
  8
newlayer
 62
7
100
AcDbSpline
 70
8
 71
3
 72
8
 73
4
 74
0
 40
0
 40
0
 40
0
 40
0
 40
1
 40
1
 40
1
 40
1
 10
410.043085
 20
673.440800
 30
0.0
 10
409.930842
 20
672.213120
 30
0.0
 10
409.874721
 20
670.548932
 30
0.0
 10
409.874721
 20
668.448237
 30
0.0
  0
LWPOLYLINE
  5
319
100
AcDbEntity
  8
newlayer
 62
7
100
AcDbPolyline
 90
11
 70
0
 10
414.168071
 20
660.304624
 30
0.0
 10
415.515006
 20
657.726496
 30
0.0
 10
416.469092
 20
654.739143
 30
0.0
 10
417.563471
 20
650.483187
 30
0.0
 10
415.907863
 20
650.646878
 30
0.0
 10
413.971643
 20
656.539740
 30
0.0
 10
412.793073
 20
658.790485
 30
0.0
 10
409.930831
 20
663.251054
 30
0.0
 10
409.818594
 20
661.123076
 30
0.0
 10
409.537983
 20
650.565033
 30
0.0
 10
407.938493
 20
650.483193
 30
0.0
  0
SPLINE
  5
31a
100
AcDbEntity
  8
newlayer
 62
7
100
AcDbSpline
 70
8
 71
3
 72
8
 73
4
 74
0
 40
0
 40
0
 40
0
 40
0
 40
1
 40
1
 40
1
 40
1
 10
421.164963
 20
668.448230
 30
0.0
 10
422.006798
 20
668.693766
 30
0.0
 10
422.465131
 20
668.939302
 30
0.0
 10
422.539961
 20
669.184838
 30
0.0
  0
SPLINE
  5
31b
100
AcDbEntity
  8
newlayer
 62
7
100
AcDbSpline
 70
8
 71
3
 72
8
 73
4
 74
0
 40
0
 40
0
 40
0
 40
0
 40
1
 40
1
 40
1
 40
1
 10
422.539961
 20
669.184838
 30
0.0
 10
423.101183
 20
669.594064
 30
0.0
 10
423.456624
 20
670.016932
 30
0.0
 10
423.606285
 20
670.453440
 30
0.0
  0
SPLINE
  5
31c
100
AcDbEntity
  8
newlayer
 62
7
100
AcDbSpline
 70
8
 71
3
 72
8
 73
4
 74
0
 40
0
 40
0
 40
0
 40
0
 40
1
 40
1
 40
1
 40
1
 10
423.606285
 20
670.453440
 30
0.0
 10
424.186216
 20
671.435584
 30
0.0
 10
424.906453
 20
672.635981
 30
0.0
 10
425.766996
 20
674.054633
 30
0.0
  0
SPLINE
  5
31d
100
AcDbEntity
  8
newlayer
 62
7
100
AcDbSpline
 70
8
 71
3
 72
8
 73
4
 74
0
 40
0
 40
0
 40
0
 40
0
 40
1
 40
1
 40
1
 40
1
 10
425.766996
 20
674.054633
 30
0.0
 10
425.766996
 20
674.081917
 30
0.0
 10
425.757639
 20
674.532066
 30
0.0
 10
425.738925
 20
675.405080
 30
0.0
  0
SPLINE
  5
31e
100
AcDbEntity
  8
newlayer
 62
7
100
AcDbSpline
 70
8
 71
3
 72
8
 73
4
 74
0
 40
0
 40
0
 40
0
 40
0
 40
1
 40
1
 40
1
 40
1
 10
425.738925
 20
675.405080
 30
0.0
 10
425.701495
 20
676.223533
 30
0.0
 10
425.785678
 20
676.700964
 30
0.0
 10
425.991472
 20
676.837374
 30
0.0
  0
SPLINE
  5
31f
100
AcDbEntity
  8
newlayer
 62
7
100
AcDbSpline
 70
8
 71
3
 72
8
 73
4
 74
0
 40
0
 40
0
 40
0
 40
0
 40
1
 40
1
 40
1
 40
1
 10
425.991472
 20
676.837374
 30
0.0
 10
425.935350
 20
676.428147
 30
0.0
 10
425.972765
 20
676.018921
 30
0.0
 10
426.103718
 20
675.609694
 30
0.0
  0
SPLINE
  5
320
100
AcDbEntity
  8
newlayer
 62
7
100
AcDbSpline
 70
8
 71
3
 72
8
 73
4
 74
0
 40
0
 40
0
 40
0
 40
0
 40
1
 40
1
 40
1
 40
1
 10
426.103718
 20
675.609694
 30
0.0
 10
426.234670
 20
675.200468
 30
0.0
 10
426.393683
 20
675.009495
 30
0.0
 10
426.580757
 20
675.036777
 30
0.0
  0
SPLINE
  5
321
100
AcDbEntity
  8
newlayer
 62
7
100
AcDbSpline
 70
8
 71
3
 72
8
 73
4
 74
0
 40
0
 40
0
 40
0
 40
0
 40
1
 40
1
 40
1
 40
1
 10
426.580757
 20
675.036777
 30
0.0
 10
426.674296
 20
675.064061
 30
0.0
 10
426.721066
 20
675.295956
 30
0.0
 10
426.721066
 20
675.732462
 30
0.0
  0
SPLINE
  5
322
100
AcDbEntity
  8
newlayer
 62
7
100
AcDbSpline
 70
8
 71
3
 72
8
 73
4
 74
0
 40
0
 40
0
 40
0
 40
0
 40
1
 40
1
 40
1
 40
1
 10
426.721066
 20
675.732462
 30
0.0
 10
426.721066
 20
676.960141
 30
0.0
 10
426.571405
 20
678.092334
 30
0.0
 10
426.272082
 20
679.129041
 30
0.0
  0
SPLINE
  5
323
100
AcDbEntity
  8
newlayer
 62
7
100
AcDbSpline
 70
8
 71
3
 72
8
 73
4
 74
0
 40
0
 40
0
 40
0
 40
0
 40
1
 40
1
 40
1
 40
1
 10
426.272082
 20
679.129041
 30
0.0
 10
426.421744
 20
679.019914
 30
0.0
 10
426.571405
 20
678.910787
 30
0.0
 10
426.721066
 20
678.801660
 30
0.0
  0
SPLINE
  5
324
100
AcDbEntity
  8
newlayer
 62
7
100
AcDbSpline
 70
8
 71
3
 72
8
 73
4
 74
0
 40
0
 40
0
 40
0
 40
0
 40
1
 40
1
 40
1
 40
1
 10
426.721066
 20
678.801660
 30
0.0
 10
426.814600
 20
678.610688
 30
0.0
 10
426.889431
 20
677.983207
 30
0.0
 10
426.945558
 20
676.919219
 30
0.0
  0
SPLINE
  5
325
100
AcDbEntity
  8
newlayer
 62
7
100
AcDbSpline
 70
8
 71
3
 72
8
 73
4
 74
0
 40
0
 40
0
 40
0
 40
0
 40
1
 40
1
 40
1
 40
1
 10
426.945558
 20
676.919219
 30
0.0
 10
427.020383
 20
676.755528
 30
0.0
 10
427.085856
 20
676.673682
 30
0.0
 10
427.141978
 20
676.673682
 30
0.0
  0
SPLINE
  5
326
100
AcDbEntity
  8
newlayer
 62
7
100
AcDbSpline
 70
8
 71
3
 72
8
 73
4
 74
0
 40
0
 40
0
 40
0
 40
0
 40
1
 40
1
 40
1
 40
1
 10
427.141978
 20
676.673682
 30
0.0
 10
427.198105
 20
676.673682
 30
0.0
 10
427.310351
 20
677.055627
 30
0.0
 10
427.478716
 20
677.819517
 30
0.0
  0
SPLINE
  5
327
100
AcDbEntity
  8
newlayer
 62
7
100
AcDbSpline
 70
8
 71
3
 72
8
 73
4
 74
0
 40
0
 40
0
 40
0
 40
0
 40
1
 40
1
 40
1
 40
1
 10
427.478716
 20
677.819517
 30
0.0
 10
427.721911
 20
678.910787
 30
0.0
 10
427.815448
 20
679.974776
 30
0.0
 10
427.759326
 20
681.011483
 30
0.0
  0
SPLINE
  5
328
100
AcDbEntity
  8
newlayer
 62
7
100
AcDbSpline
 70
8
 71
3
 72
8
 73
4
 74
0
 40
0
 40
0
 40
0
 40
0
 40
1
 40
1
 40
1
 40
1
 10
427.759326
 20
681.011483
 30
0.0
 10
427.983818
 20
680.956923
 30
0.0
 10
428.105416
 20
680.602260
 30
0.0
 10
428.124119
 20
679.947494
 30
0.0
  0
SPLINE
  5
329
100
AcDbEntity
  8
newlayer
 62
7
100
AcDbSpline
 70
8
 71
3
 72
8
 73
4
 74
0
 40
0
 40
0
 40
0
 40
0
 40
1
 40
1
 40
1
 40
1
 10
428.124119
 20
679.947494
 30
0.0
 10
428.124119
 20
679.592831
 30
0.0
 10
428.124119
 20
679.251809
 30
0.0
 10
428.124119
 20
678.924428
 30
0.0
  0
SPLINE
  5
32a
100
AcDbEntity
  8
newlayer
 62
7
100
AcDbSpline
 70
8
 71
3
 72
8
 73
4
 74
0
 40
0
 40
0
 40
0
 40
0
 40
1
 40
1
 40
1
 40
1
 10
428.124119
 20
678.924428
 30
0.0
 10
428.086690
 20
678.869868
 30
0.0
 10
428.124106
 20
678.651614
 30
0.0
 10
428.236365
 20
678.269666
 30
0.0
  0
SPLINE
  5
32b
100
AcDbEntity
  8
newlayer
 62
7
100
AcDbSpline
 70
8
 71
3
 72
8
 73
4
 74
0
 40
0
 40
0
 40
0
 40
0
 40
1
 40
1
 40
1
 40
1
 10
428.236365
 20
678.269666
 30
0.0
 10
428.273794
 20
678.160539
 30
0.0
 10
428.339271
 20
678.105976
 30
0.0
 10
428.432794
 20
678.105976
 30
0.0
  0
SPLINE
  5
32c
100
AcDbEntity
  8
newlayer
 62
7
100
AcDbSpline
 70
8
 71
3
 72
8
 73
4
 74
0
 40
0
 40
0
 40
0
 40
0
 40
1
 40
1
 40
1
 40
1
 10
428.432794
 20
678.105976
 30
0.0
 10
428.582455
 20
678.105976
 30
0.0
 10
428.769531
 20
678.228743
 30
0.0
 10
428.994023
 20
678.474279
 30
0.0
  0
SPLINE
  5
32d
100
AcDbEntity
  8
newlayer
 62
7
100
AcDbSpline
 70
8
 71
3
 72
8
 73
4
 74
0
 40
0
 40
0
 40
0
 40
0
 40
1
 40
1
 40
1
 40
1
 10
428.994023
 20
678.474279
 30
0.0
 10
428.900484
 20
677.301163
 30
0.0
 10
428.545040
 20
676.168970
 30
0.0
 10
427.927691
 20
675.077699
 30
0.0
  0
SPLINE
  5
32e
100
AcDbEntity
  8
newlayer
 62
7
100
AcDbSpline
 70
8
 71
3
 72
8
 73
4
 74
0
 40
0
 40
0
 40
0
 40
0
 40
1
 40
1
 40
1
 40
1
 10
427.927691
 20
675.077699
 30
0.0
 10
427.553544
 20
674.477500
 30
0.0
 10
427.179396
 20
673.863661
 30
0.0
 10
426.805248
 20
673.236180
 30
0.0
  0
SPLINE
  5
32f
100
AcDbEntity
  8
newlayer
 62
7
100
AcDbSpline
 70
8
 71
3
 72
8
 73
4
 74
0
 40
0
 40
0
 40
0
 40
0
 40
1
 40
1
 40
1
 40
1
 10
426.805248
 20
673.236180
 30
0.0
 10
426.543344
 20
672.581418
 30
0.0
 10
426.019535
 20
671.722042
 30
0.0
 10
425.233822
 20
670.658053
 30
0.0
  0
SPLINE
  5
330
100
AcDbEntity
  8
newlayer
 62
7
100
AcDbSpline
 70
8
 71
3
 72
8
 73
4
 74
0
 40
0
 40
0
 40
0
 40
0
 40
1
 40
1
 40
1
 40
1
 10
425.233822
 20
670.658053
 30
0.0
 10
424.934505
 20
670.057854
 30
0.0
 10
424.532294
 20
669.471296
 30
0.0
 10
424.027189
 20
668.898379
 30
0.0
  0
SPLINE
  5
331
100
AcDbEntity
  8
newlayer
 62
7
100
AcDbSpline
 70
8
 71
3
 72
8
 73
4
 74
0
 40
0
 40
0
 40
0
 40
0
 40
1
 40
1
 40
1
 40
1
 10
424.027189
 20
668.898379
 30
0.0
 10
423.615629
 20
668.434589
 30
0.0
 10
423.213420
 20
667.984440
 30
0.0
 10
422.820564
 20
667.547932
 30
0.0
  0
SPLINE
  5
332
100
AcDbEntity
  8
newlayer
 62
7
100
AcDbSpline
 70
8
 71
3
 72
8
 73
4
 74
0
 40
0
 40
0
 40
0
 40
0
 40
1
 40
1
 40
1
 40
1
 10
422.820564
 20
667.547932
 30
0.0
 10
422.128385
 20
666.620352
 30
0.0
 10
421.716819
 20
665.965589
 30
0.0
 10
421.585867
 20
665.583645
 30
0.0
  0
SPLINE
  5
333
100
AcDbEntity
  8
newlayer
 62
7
100
AcDbSpline
 70
8
 71
3
 72
8
 73
4
 74
0
 40
0
 40
0
 40
0
 40
0
 40
1
 40
1
 40
1
 40
1
 10
421.585867
 20
665.583645
 30
0.0
 10
421.922602
 20
665.065291
 30
0.0
 10
422.586717
 20
664.205915
 30
0.0
 10
423.578213
 20
663.005518
 30
0.0
  0
SPLINE
  5
334
100
AcDbEntity
  8
newlayer
 62
7
100
AcDbSpline
 70
8
 71
3
 72
8
 73
4
 74
0
 40
0
 40
0
 40
0
 40
0
 40
1
 40
1
 40
1
 40
1
 10
423.578213
 20
663.005518
 30
0.0
 10
424.420048
 20
661.996093
 30
0.0
 10
425.046748
 20
661.095795
 30
0.0
 10
425.458314
 20
660.304624
 30
0.0
  0
LWPOLYLINE
  5
335
100
AcDbEntity
  8
newlayer
 62
7
100
AcDbPolyline
 90
1
 70
1
 10
409.874721
 20
668.448237
 30
0.0
  0
SPLINE
  5
336
100
AcDbEntity
  8
newlayer
 62
7
100
AcDbSpline
 70
8
 71
3
 72
8
 73
4
 74
0
 40
0
 40
0
 40
0
 40
0
 40
1
 40
1
 40
1
 40
1
 10
419.228727
 20
650.483193
 30
0.0
 10
419.210013
 20
650.810575
 30
0.0
 10
419.191298
 20
651.642669
 30
0.0
 10
419.172583
 20
652.979475
 30
0.0
  0
SPLINE
  5
337
100
AcDbEntity
  8
newlayer
 62
7
100
AcDbSpline
 70
8
 71
3
 72
8
 73
4
 74
0
 40
0
 40
0
 40
0
 40
0
 40
1
 40
1
 40
1
 40
1
 10
419.172583
 20
652.979475
 30
0.0
 10
419.191298
 20
654.207154
 30
0.0
 10
419.210013
 20
656.103237
 30
0.0
 10
419.228727
 20
658.667723
 30
0.0
  0
SPLINE
  5
338
100
AcDbEntity
  8
newlayer
 62
7
100
AcDbSpline
 70
8
 71
3
 72
8
 73
4
 74
0
 40
0
 40
0
 40
0
 40
0
 40
1
 40
1
 40
1
 40
1
 10
419.228727
 20
658.667723
 30
0.0
 10
419.228727
 20
659.349767
 30
0.0
 10
419.191315
 20
660.659292
 30
0.0
 10
419.116490
 20
662.596297
 30
0.0
  0
SPLINE
  5
339
100
AcDbEntity
  8
newlayer
 62
7
100
AcDbSpline
 70
8
 71
3
 72
8
 73
4
 74
0
 40
0
 40
0
 40
0
 40
0
 40
1
 40
1
 40
1
 40
1
 10
419.116490
 20
662.596297
 30
0.0
 10
419.060362
 20
664.315049
 30
0.0
 10
419.032299
 20
665.188065
 30
0.0
 10
419.032299
 20
665.215347
 30
0.0
  0
SPLINE
  5
33a
100
AcDbEntity
  8
newlayer
 62
7
100
AcDbSpline
 70
8
 71
3
 72
8
 73
4
 74
0
 40
0
 40
0
 40
0
 40
0
 40
1
 40
1
 40
1
 40
1
 10
419.032299
 20
665.215347
 30
0.0
 10
419.069728
 20
665.406319
 30
0.0
 10
419.069728
 20
667.547938
 30
0.0
 10
419.032299
 20
671.640203
 30
0.0
  0
SPLINE
  5
33b
100
AcDbEntity
  8
newlayer
 62
7
100
AcDbSpline
 70
8
 71
3
 72
8
 73
4
 74
0
 40
0
 40
0
 40
0
 40
0
 40
1
 40
1
 40
1
 40
1
 10
419.032299
 20
671.640203
 30
0.0
 10
419.013584
 20
673.331672
 30
0.0
 10
418.948108
 20
674.368379
 30
0.0
 10
418.835871
 20
674.750324
 30
0.0
  0
SPLINE
  5
33c
100
AcDbEntity
  8
newlayer
 62
7
100
AcDbSpline
 70
8
 71
3
 72
8
 73
4
 74
0
 40
0
 40
0
 40
0
 40
0
 40
1
 40
1
 40
1
 40
1
 10
418.835871
 20
674.750324
 30
0.0
 10
418.648797
 20
675.486931
 30
0.0
 10
418.555260
 20
676.387230
 30
0.0
 10
418.555260
 20
677.451219
 30
0.0
  0
SPLINE
  5
33d
100
AcDbEntity
  8
newlayer
 62
7
100
AcDbSpline
 70
8
 71
3
 72
8
 73
4
 74
0
 40
0
 40
0
 40
0
 40
0
 40
1
 40
1
 40
1
 40
1
 10
418.555260
 20
677.451219
 30
0.0
 10
418.555260
 20
678.078700
 30
0.0
 10
418.602030
 20
678.569771
 30
0.0
 10
418.695569
 20
678.924434
 30
0.0
  0
SPLINE
  5
33e
100
AcDbEntity
  8
newlayer
 62
7
100
AcDbSpline
 70
8
 71
3
 72
8
 73
4
 74
0
 40
0
 40
0
 40
0
 40
0
 40
1
 40
1
 40
1
 40
1
 10
418.695569
 20
678.924434
 30
0.0
 10
418.751691
 20
678.460644
 30
0.0
 10
418.798458
 20
678.010495
 30
0.0
 10
418.835871
 20
677.573987
 30
0.0
  0
SPLINE
  5
33f
100
AcDbEntity
  8
newlayer
 62
7
100
AcDbSpline
 70
8
 71
3
 72
8
 73
4
 74
0
 40
0
 40
0
 40
0
 40
0
 40
1
 40
1
 40
1
 40
1
 10
418.835871
 20
677.573987
 30
0.0
 10
418.910701
 20
677.001070
 30
0.0
 10
419.004241
 20
676.741893
 30
0.0
 10
419.116490
 20
676.796456
 30
0.0
  0
SPLINE
  5
340
100
AcDbEntity
  8
newlayer
 62
7
100
AcDbSpline
 70
8
 71
3
 72
8
 73
4
 74
0
 40
0
 40
0
 40
0
 40
0
 40
1
 40
1
 40
1
 40
1
 10
419.116490
 20
676.796456
 30
0.0
 10
419.191315
 20
676.823740
 30
0.0
 10
419.228727
 20
677.232966
 30
0.0
 10
419.228727
 20
678.024135
 30
0.0
  0
SPLINE
  5
341
100
AcDbEntity
  8
newlayer
 62
7
100
AcDbSpline
 70
8
 71
3
 72
8
 73
4
 74
0
 40
0
 40
0
 40
0
 40
0
 40
1
 40
1
 40
1
 40
1
 10
419.228727
 20
678.024135
 30
0.0
 10
419.228727
 20
678.487926
 30
0.0
 10
419.228727
 20
678.951716
 30
0.0
 10
419.228727
 20
679.415506
 30
0.0
  0
SPLINE
  5
342
100
AcDbEntity
  8
newlayer
 62
7
100
AcDbSpline
 70
8
 71
3
 72
8
 73
4
 74
0
 40
0
 40
0
 40
0
 40
0
 40
1
 40
1
 40
1
 40
1
 10
419.228727
 20
679.415506
 30
0.0
 10
419.266156
 20
680.452213
 30
0.0
 10
419.415817
 20
681.079694
 30
0.0
 10
419.677711
 20
681.297948
 30
0.0
  0
SPLINE
  5
343
100
AcDbEntity
  8
newlayer
 62
7
100
AcDbSpline
 70
8
 71
3
 72
8
 73
4
 74
0
 40
0
 40
0
 40
0
 40
0
 40
1
 40
1
 40
1
 40
1
 10
419.677711
 20
681.297948
 30
0.0
 10
419.621589
 20
677.260246
 30
0.0
 10
419.827372
 20
675.227754
 30
0.0
 10
420.295059
 20
675.200473
 30
0.0
  0
SPLINE
  5
344
100
AcDbEntity
  8
newlayer
 62
7
100
AcDbSpline
 70
8
 71
3
 72
8
 73
4
 74
0
 40
0
 40
0
 40
0
 40
0
 40
1
 40
1
 40
1
 40
1
 10
420.295059
 20
675.200473
 30
0.0
 10
420.426006
 20
675.200473
 30
0.0
 10
420.491479
 20
675.418727
 30
0.0
 10
420.491479
 20
675.855235
 30
0.0
  0
SPLINE
  5
345
100
AcDbEntity
  8
newlayer
 62
7
100
AcDbSpline
 70
8
 71
3
 72
8
 73
4
 74
0
 40
0
 40
0
 40
0
 40
0
 40
1
 40
1
 40
1
 40
1
 10
420.491479
 20
675.855235
 30
0.0
 10
420.491479
 20
676.128053
 30
0.0
 10
420.454067
 20
676.687330
 30
0.0
 10
420.379242
 20
677.533064
 30
0.0
  0
SPLINE
  5
346
100
AcDbEntity
  8
newlayer
 62
7
100
AcDbSpline
 70
8
 71
3
 72
8
 73
4
 74
0
 40
0
 40
0
 40
0
 40
0
 40
1
 40
1
 40
1
 40
1
 10
420.379242
 20
677.533064
 30
0.0
 10
420.285702
 20
678.487926
 30
0.0
 10
420.229578
 20
679.210892
 30
0.0
 10
420.210869
 20
679.701965
 30
0.0
  0
SPLINE
  5
347
100
AcDbEntity
  8
newlayer
 62
7
100
AcDbSpline
 70
8
 71
3
 72
8
 73
4
 74
0
 40
0
 40
0
 40
0
 40
0
 40
1
 40
1
 40
1
 40
1
 10
420.210869
 20
679.701965
 30
0.0
 10
420.136044
 20
681.584407
 30
0.0
 10
420.397948
 20
682.757522
 30
0.0
 10
420.996582
 20
683.221312
 30
0.0
  0
SPLINE
  5
348
100
AcDbEntity
  8
newlayer
 62
7
100
AcDbSpline
 70
8
 71
3
 72
8
 73
4
 74
0
 40
0
 40
0
 40
0
 40
0
 40
1
 40
1
 40
1
 40
1
 10
420.996582
 20
683.221312
 30
0.0
 10
420.865630
 20
682.812086
 30
0.0
 10
420.781447
 20
682.402859
 30
0.0
 10
420.744035
 20
681.993633
 30
0.0
  0
SPLINE
  5
349
100
AcDbEntity
  8
newlayer
 62
7
100
AcDbSpline
 70
8
 71
3
 72
8
 73
4
 74
0
 40
0
 40
0
 40
0
 40
0
 40
1
 40
1
 40
1
 40
1
 10
420.744035
 20
681.993633
 30
0.0
 10
420.706606
 20
681.720815
 30
0.0
 10
420.706606
 20
681.420716
 30
0.0
 10
420.744035
 20
681.093334
 30
0.0
  0
SPLINE
  5
34a
100
AcDbEntity
  8
newlayer
 62
7
100
AcDbSpline
 70
8
 71
3
 72
8
 73
4
 74
0
 40
0
 40
0
 40
0
 40
0
 40
1
 40
1
 40
1
 40
1
 10
420.744035
 20
681.093334
 30
0.0
 10
420.762749
 20
680.711389
 30
0.0
 10
420.772107
 20
680.506776
 30
0.0
 10
420.772107
 20
680.479495
 30
0.0
  0
SPLINE
  5
34b
100
AcDbEntity
  8
newlayer
 62
7
100
AcDbSpline
 70
8
 71
3
 72
8
 73
4
 74
0
 40
0
 40
0
 40
0
 40
0
 40
1
 40
1
 40
1
 40
1
 10
420.772107
 20
680.479495
 30
0.0
 10
420.753392
 20
678.242390
 30
0.0
 10
420.865635
 20
677.110196
 30
0.0
 10
421.108836
 20
677.082915
 30
0.0
  0
SPLINE
  5
34c
100
AcDbEntity
  8
newlayer
 62
7
100
AcDbSpline
 70
8
 71
3
 72
8
 73
4
 74
0
 40
0
 40
0
 40
0
 40
0
 40
1
 40
1
 40
1
 40
1
 10
421.108836
 20
677.082915
 30
0.0
 10
421.202376
 20
677.082915
 30
0.0
 10
421.258497
 20
677.123837
 30
0.0
 10
421.277201
 20
677.205683
 30
0.0
  0
SPLINE
  5
34d
100
AcDbEntity
  8
newlayer
 62
7
100
AcDbSpline
 70
8
 71
3
 72
8
 73
4
 74
0
 40
0
 40
0
 40
0
 40
0
 40
1
 40
1
 40
1
 40
1
 10
421.277201
 20
677.205683
 30
0.0
 10
421.314630
 20
677.314810
 30
0.0
 10
421.286569
 20
677.915008
 30
0.0
 10
421.193018
 20
679.006279
 30
0.0
  0
SPLINE
  5
34e
100
AcDbEntity
  8
newlayer
 62
7
100
AcDbSpline
 70
8
 71
3
 72
8
 73
4
 74
0
 40
0
 40
0
 40
0
 40
0
 40
1
 40
1
 40
1
 40
1
 10
421.193018
 20
679.006279
 30
0.0
 10
421.585875
 20
678.597053
 30
0.0
 10
421.782303
 20
677.846805
 30
0.0
 10
421.782303
 20
676.755533
 30
0.0
  0
SPLINE
  5
34f
100
AcDbEntity
  8
newlayer
 62
7
100
AcDbSpline
 70
8
 71
3
 72
8
 73
4
 74
0
 40
0
 40
0
 40
0
 40
0
 40
1
 40
1
 40
1
 40
1
 10
421.782303
 20
676.755533
 30
0.0
 10
421.782303
 20
675.773390
 30
0.0
 10
421.632645
 20
674.668479
 30
0.0
 10
421.333328
 20
673.440800
 30
0.0
  0
SPLINE
  5
350
100
AcDbEntity
  8
newlayer
 62
7
100
AcDbSpline
 70
8
 71
3
 72
8
 73
4
 74
0
 40
0
 40
0
 40
0
 40
0
 40
1
 40
1
 40
1
 40
1
 10
421.333328
 20
673.440800
 30
0.0
 10
421.221085
 20
672.213120
 30
0.0
 10
421.164963
 20
670.548932
 30
0.0
 10
421.164963
 20
668.448237
 30
0.0
  0
LWPOLYLINE
  5
351
100
AcDbEntity
  8
newlayer
 62
7
100
AcDbPolyline
 90
11
 70
0
 10
425.458314
 20
660.304624
 30
0.0
 10
426.805248
 20
657.726496
 30
0.0
 10
427.759326
 20
654.739143
 30
0.0
 10
428.853714
 20
650.483187
 30
0.0
 10
427.198105
 20
650.646878
 30
0.0
 10
425.261886
 20
656.539740
 30
0.0
 10
424.083316
 20
658.790485
 30
0.0
 10
421.221074
 20
663.251054
 30
0.0
 10
421.108828
 20
661.123076
 30
0.0
 10
420.828217
 20
650.565033
 30
0.0
 10
419.228727
 20
650.483193
 30
0.0
  0
SPLINE
  5
352
100
AcDbEntity
  8
newlayer
 62
7
100
AcDbSpline
 70
8
 71
3
 72
8
 73
4
 74
0
 40
0
 40
0
 40
0
 40
0
 40
1
 40
1
 40
1
 40
1
 10
440.340393
 20
676.960141
 30
0.0
 10
440.733250
 20
676.878296
 30
0.0
 10
441.069982
 20
677.273882
 30
0.0
 10
441.350590
 20
678.146898
 30
0.0
  0
LWPOLYLINE
  5
353
100
AcDbEntity
  8
newlayer
 62
7
100
AcDbPolyline
 90
1
 70
1
 10
421.164963
 20
668.448237
 30
0.0
  0
SPLINE
  5
354
100
AcDbEntity
  8
newlayer
 62
7
100
AcDbSpline
 70
8
 71
3
 72
8
 73
4
 74
0
 40
0
 40
0
 40
0
 40
0
 40
1
 40
1
 40
1
 40
1
 10
441.743446
 20
679.742881
 30
0.0
 10
441.893108
 20
679.415500
 30
0.0
 10
441.967938
 20
678.978992
 30
0.0
 10
441.967938
 20
678.433357
 30
0.0
  0
SPLINE
  5
355
100
AcDbEntity
  8
newlayer
 62
7
100
AcDbSpline
 70
8
 71
3
 72
8
 73
4
 74
0
 40
0
 40
0
 40
0
 40
0
 40
1
 40
1
 40
1
 40
1
 10
441.967938
 20
678.433357
 30
0.0
 10
441.967938
 20
678.160539
 30
0.0
 10
441.921168
 20
677.628544
 30
0.0
 10
441.827629
 20
676.837374
 30
0.0
  0
SPLINE
  5
356
100
AcDbEntity
  8
newlayer
 62
7
100
AcDbSpline
 70
8
 71
3
 72
8
 73
4
 74
0
 40
0
 40
0
 40
0
 40
0
 40
1
 40
1
 40
1
 40
1
 10
441.827629
 20
676.837374
 30
0.0
 10
441.752798
 20
676.073484
 30
0.0
 10
441.724737
 20
675.473285
 30
0.0
 10
441.743446
 20
675.036777
 30
0.0
  0
LWPOLYLINE
  5
357
100
AcDbEntity
  8
newlayer
 62
7
100
AcDbPolyline
 90
2
 70
0
 10
441.350590
 20
678.146898
 30
0.0
 10
441.743446
 20
679.742881
 30
0.0
  0
SPLINE
  5
358
100
AcDbEntity
  8
newlayer
 62
7
100
AcDbSpline
 70
8
 71
3
 72
8
 73
4
 74
0
 40
0
 40
0
 40
0
 40
0
 40
1
 40
1
 40
1
 40
1
 10
432.876126
 20
665.788258
 30
0.0
 10
433.530887
 20
665.242623
 30
0.0
 10
434.335306
 20
664.969806
 30
0.0
 10
435.289384
 20
664.969806
 30
0.0
  0
SPLINE
  5
359
100
AcDbEntity
  8
newlayer
 62
7
100
AcDbSpline
 70
8
 71
3
 72
8
 73
4
 74
0
 40
0
 40
0
 40
0
 40
0
 40
1
 40
1
 40
1
 40
1
 10
435.289384
 20
664.969806
 30
0.0
 10
435.476458
 20
664.969806
 30
0.0
 10
435.644826
 20
664.997086
 30
0.0
 10
435.794487
 20
665.051646
 30
0.0
  0
SPLINE
  5
35a
100
AcDbEntity
  8
newlayer
 62
7
100
AcDbSpline
 70
8
 71
3
 72
8
 73
4
 74
0
 40
0
 40
0
 40
0
 40
0
 40
1
 40
1
 40
1
 40
1
 10
435.794487
 20
665.051646
 30
0.0
 10
435.831916
 20
665.160772
 30
0.0
 10
436.056405
 20
665.419949
 30
0.0
 10
436.467954
 20
665.829175
 30
0.0
  0
SPLINE
  5
35b
100
AcDbEntity
  8
newlayer
 62
7
100
AcDbSpline
 70
8
 71
3
 72
8
 73
4
 74
0
 40
0
 40
0
 40
0
 40
0
 40
1
 40
1
 40
1
 40
1
 10
436.467954
 20
665.829175
 30
0.0
 10
436.617615
 20
665.447231
 30
0.0
 10
436.701800
 20
665.242618
 30
0.0
 10
436.720509
 20
665.215336
 30
0.0
  0
SPLINE
  5
35c
100
AcDbEntity
  8
newlayer
 62
7
100
AcDbSpline
 70
8
 71
3
 72
8
 73
4
 74
0
 40
0
 40
0
 40
0
 40
0
 40
1
 40
1
 40
1
 40
1
 10
436.720509
 20
665.215336
 30
0.0
 10
436.851462
 20
664.997082
 30
0.0
 10
437.038535
 20
664.874314
 30
0.0
 10
437.281731
 20
664.847032
 30
0.0
  0
SPLINE
  5
35d
100
AcDbEntity
  8
newlayer
 62
7
100
AcDbSpline
 70
8
 71
3
 72
8
 73
4
 74
0
 40
0
 40
0
 40
0
 40
0
 40
1
 40
1
 40
1
 40
1
 10
437.281731
 20
664.847032
 30
0.0
 10
437.468805
 20
664.819748
 30
0.0
 10
437.655878
 20
664.983439
 30
0.0
 10
437.842952
 20
665.338104
 30
0.0
  0
LWPOLYLINE
  5
35e
100
AcDbEntity
  8
newlayer
 62
7
100
AcDbPolyline
 90
8
 70
0
 10
441.743446
 20
675.036777
 30
0.0
 10
440.536821
 20
675.118617
 30
0.0
 10
440.564893
 20
675.036777
 30
0.0
 10
438.516428
 20
675.200467
 30
0.0
 10
436.692454
 20
675.200467
 30
0.0
 10
433.044499
 20
675.036777
 30
0.0
 10
433.016427
 20
670.617131
 30
0.0
 10
432.876126
 20
665.788258
 30
0.0
  0
SPLINE
  5
35f
100
AcDbEntity
  8
newlayer
 62
7
100
AcDbSpline
 70
8
 71
3
 72
8
 73
4
 74
0
 40
0
 40
0
 40
0
 40
0
 40
1
 40
1
 40
1
 40
1
 10
438.263872
 20
666.483938
 30
0.0
 10
438.263872
 20
666.456654
 30
0.0
 10
438.329348
 20
666.252041
 30
0.0
 10
438.460301
 20
665.870099
 30
0.0
  0
SPLINE
  5
360
100
AcDbEntity
  8
newlayer
 62
7
100
AcDbSpline
 70
8
 71
3
 72
8
 73
4
 74
0
 40
0
 40
0
 40
0
 40
0
 40
1
 40
1
 40
1
 40
1
 10
438.460301
 20
665.870099
 30
0.0
 10
438.591253
 20
665.515436
 30
0.0
 10
438.684790
 20
665.379027
 30
0.0
 10
438.740911
 20
665.460872
 30
0.0
  0
SPLINE
  5
361
100
AcDbEntity
  8
newlayer
 62
7
100
AcDbSpline
 70
8
 71
3
 72
8
 73
4
 74
0
 40
0
 40
0
 40
0
 40
0
 40
1
 40
1
 40
1
 40
1
 10
438.740911
 20
665.460872
 30
0.0
 10
438.853154
 20
665.651844
 30
0.0
 10
438.927985
 20
665.829176
 30
0.0
 10
438.965403
 20
665.992867
 30
0.0
  0
SPLINE
  5
362
100
AcDbEntity
  8
newlayer
 62
7
100
AcDbSpline
 70
8
 71
3
 72
8
 73
4
 74
0
 40
0
 40
0
 40
0
 40
0
 40
1
 40
1
 40
1
 40
1
 10
438.965403
 20
665.992867
 30
0.0
 10
439.002832
 20
666.183839
 30
0.0
 10
439.040245
 20
666.320248
 30
0.0
 10
439.077641
 20
666.402093
 30
0.0
  0
LWPOLYLINE
  5
363
100
AcDbEntity
  8
newlayer
 62
7
100
AcDbPolyline
 90
3
 70
0
 10
437.842952
 20
665.338104
 30
0.0
 10
438.067444
 20
665.747330
 30
0.0
 10
438.263872
 20
666.483938
 30
0.0
  0
SPLINE
  5
364
100
AcDbEntity
  8
newlayer
 62
7
100
AcDbSpline
 70
8
 71
3
 72
8
 73
4
 74
0
 40
0
 40
0
 40
0
 40
0
 40
1
 40
1
 40
1
 40
1
 10
439.470497
 20
663.005513
 30
0.0
 10
436.907580
 20
663.005513
 30
0.0
 10
435.626122
 20
662.978233
 30
0.0
 10
435.626122
 20
662.923673
 30
0.0
  0
SPLINE
  5
365
100
AcDbEntity
  8
newlayer
 62
7
100
AcDbSpline
 70
8
 71
3
 72
8
 73
4
 74
0
 40
0
 40
0
 40
0
 40
0
 40
1
 40
1
 40
1
 40
1
 10
435.626122
 20
662.923673
 30
0.0
 10
435.626122
 20
662.896388
 30
0.0
 10
434.690748
 20
662.896388
 30
0.0
 10
432.819999
 20
662.923673
 30
0.0
  0
LWPOLYLINE
  5
366
100
AcDbEntity
  8
newlayer
 62
7
100
AcDbPolyline
 90
3
 70
0
 10
439.077641
 20
666.402093
 30
0.0
 10
439.751116
 20
667.670695
 30
0.0
 10
439.470497
 20
663.005513
 30
0.0
  0
SPLINE
  5
367
100
AcDbEntity
  8
newlayer
 62
7
100
AcDbSpline
 70
8
 71
3
 72
8
 73
4
 74
0
 40
0
 40
0
 40
0
 40
0
 40
1
 40
1
 40
1
 40
1
 10
432.651634
 20
652.038248
 30
0.0
 10
433.268982
 20
651.492613
 30
0.0
 10
434.428846
 20
651.328923
 30
0.0
 10
436.131225
 20
651.547177
 30
0.0
  0
SPLINE
  5
368
100
AcDbEntity
  8
newlayer
 62
7
100
AcDbSpline
 70
8
 71
3
 72
8
 73
4
 74
0
 40
0
 40
0
 40
0
 40
0
 40
1
 40
1
 40
1
 40
1
 10
436.131225
 20
651.547177
 30
0.0
 10
436.243468
 20
651.519893
 30
0.0
 10
436.430542
 20
651.492613
 30
0.0
 10
436.692446
 20
651.465337
 30
0.0
  0
SPLINE
  5
369
100
AcDbEntity
  8
newlayer
 62
7
100
AcDbSpline
 70
8
 71
3
 72
8
 73
4
 74
0
 40
0
 40
0
 40
0
 40
0
 40
1
 40
1
 40
1
 40
1
 10
436.692446
 20
651.465337
 30
0.0
 10
437.085303
 20
651.410777
 30
0.0
 10
437.412683
 20
651.424419
 30
0.0
 10
437.674587
 20
651.506263
 30
0.0
  0
SPLINE
  5
36a
100
AcDbEntity
  8
newlayer
 62
7
100
AcDbSpline
 70
8
 71
3
 72
8
 73
4
 74
0
 40
0
 40
0
 40
0
 40
0
 40
1
 40
1
 40
1
 40
1
 10
437.674587
 20
651.506263
 30
0.0
 10
438.422883
 20
651.724517
 30
0.0
 10
438.881215
 20
651.642671
 30
0.0
 10
439.049586
 20
651.260727
 30
0.0
  0
SPLINE
  5
36b
100
AcDbEntity
  8
newlayer
 62
7
100
AcDbSpline
 70
8
 71
3
 72
8
 73
4
 74
0
 40
0
 40
0
 40
0
 40
0
 40
1
 40
1
 40
1
 40
1
 10
439.049586
 20
651.260727
 30
0.0
 10
439.423733
 20
651.260727
 30
0.0
 10
439.882066
 20
651.288007
 30
0.0
 10
440.424584
 20
651.342567
 30
0.0
  0
SPLINE
  5
36c
100
AcDbEntity
  8
newlayer
 62
7
100
AcDbSpline
 70
8
 71
3
 72
8
 73
4
 74
0
 40
0
 40
0
 40
0
 40
0
 40
1
 40
1
 40
1
 40
1
 10
440.424584
 20
651.342567
 30
0.0
 10
440.723901
 20
651.397127
 30
0.0
 10
441.051281
 20
651.697226
 30
0.0
 10
441.406725
 20
652.242865
 30
0.0
  0
SPLINE
  5
36d
100
AcDbEntity
  8
newlayer
 62
7
100
AcDbSpline
 70
8
 71
3
 72
8
 73
4
 74
0
 40
0
 40
0
 40
0
 40
0
 40
1
 40
1
 40
1
 40
1
 10
441.406725
 20
652.242865
 30
0.0
 10
441.855703
 20
652.488401
 30
0.0
 10
442.229851
 20
652.529323
 30
0.0
 10
442.529168
 20
652.365633
 30
0.0
  0
LWPOLYLINE
  5
36e
100
AcDbEntity
  8
newlayer
 62
7
100
AcDbPolyline
 90
3
 70
0
 10
432.819999
 20
662.923673
 30
0.0
 10
432.427142
 20
656.007745
 30
0.0
 10
432.651634
 20
652.038248
 30
0.0
  0
SPLINE
  5
36f
100
AcDbEntity
  8
newlayer
 62
7
100
AcDbSpline
 70
8
 71
3
 72
8
 73
4
 74
0
 40
0
 40
0
 40
0
 40
0
 40
1
 40
1
 40
1
 40
1
 10
429.985779
 20
673.236184
 30
0.0
 10
429.817414
 20
673.918227
 30
0.0
 10
429.733232
 20
674.914012
 30
0.0
 10
429.733232
 20
676.223537
 30
0.0
  0
SPLINE
  5
370
100
AcDbEntity
  8
newlayer
 62
7
100
AcDbSpline
 70
8
 71
3
 72
8
 73
4
 74
0
 40
0
 40
0
 40
0
 40
0
 40
1
 40
1
 40
1
 40
1
 10
429.733232
 20
676.223537
 30
0.0
 10
429.733232
 20
677.969570
 30
0.0
 10
429.939014
 20
679.129045
 30
0.0
 10
430.350580
 20
679.701962
 30
0.0
  0
SPLINE
  5
371
100
AcDbEntity
  8
newlayer
 62
7
100
AcDbSpline
 70
8
 71
3
 72
8
 73
4
 74
0
 40
0
 40
0
 40
0
 40
0
 40
1
 40
1
 40
1
 40
1
 10
430.350580
 20
679.701962
 30
0.0
 10
430.481532
 20
678.065056
 30
0.0
 10
430.687312
 20
677.246603
 30
0.0
 10
430.967920
 20
677.246603
 30
0.0
  0
SPLINE
  5
372
100
AcDbEntity
  8
newlayer
 62
7
100
AcDbSpline
 70
8
 71
3
 72
8
 73
4
 74
0
 40
0
 40
0
 40
0
 40
0
 40
1
 40
1
 40
1
 40
1
 10
430.967920
 20
677.246603
 30
0.0
 10
431.042751
 20
677.246603
 30
0.0
 10
431.117582
 20
677.260245
 30
0.0
 10
431.192412
 20
677.287529
 30
0.0
  0
SPLINE
  5
373
100
AcDbEntity
  8
newlayer
 62
7
100
AcDbSpline
 70
8
 71
3
 72
8
 73
4
 74
0
 40
0
 40
0
 40
0
 40
0
 40
1
 40
1
 40
1
 40
1
 10
431.192412
 20
677.287529
 30
0.0
 10
431.285952
 20
677.342090
 30
0.0
 10
431.379489
 20
678.242388
 30
0.0
 10
431.473023
 20
679.988425
 30
0.0
  0
SPLINE
  5
374
100
AcDbEntity
  8
newlayer
 62
7
100
AcDbSpline
 70
8
 71
3
 72
8
 73
4
 74
0
 40
0
 40
0
 40
0
 40
0
 40
1
 40
1
 40
1
 40
1
 10
431.473023
 20
679.988425
 30
0.0
 10
431.566562
 20
681.652612
 30
0.0
 10
431.837821
 20
682.484706
 30
0.0
 10
432.286800
 20
682.484706
 30
0.0
  0
SPLINE
  5
375
100
AcDbEntity
  8
newlayer
 62
7
100
AcDbSpline
 70
8
 71
3
 72
8
 73
4
 74
0
 40
0
 40
0
 40
0
 40
0
 40
1
 40
1
 40
1
 40
1
 10
432.286800
 20
682.484706
 30
0.0
 10
432.211969
 20
681.857226
 30
0.0
 10
432.174554
 20
681.216104
 30
0.0
 10
432.174554
 20
680.561341
 30
0.0
  0
SPLINE
  5
376
100
AcDbEntity
  8
newlayer
 62
7
100
AcDbSpline
 70
8
 71
3
 72
8
 73
4
 74
0
 40
0
 40
0
 40
0
 40
0
 40
1
 40
1
 40
1
 40
1
 10
432.174554
 20
680.561341
 30
0.0
 10
432.174554
 20
678.651617
 30
0.0
 10
432.548704
 20
677.696756
 30
0.0
 10
433.297005
 20
677.696756
 30
0.0
  0
SPLINE
  5
377
100
AcDbEntity
  8
newlayer
 62
7
100
AcDbSpline
 70
8
 71
3
 72
8
 73
4
 74
0
 40
0
 40
0
 40
0
 40
0
 40
1
 40
1
 40
1
 40
1
 10
433.297005
 20
677.696756
 30
0.0
 10
433.390539
 20
677.696756
 30
0.0
 10
433.484076
 20
677.710398
 30
0.0
 10
433.577615
 20
677.737682
 30
0.0
  0
SPLINE
  5
378
100
AcDbEntity
  8
newlayer
 62
7
100
AcDbSpline
 70
8
 71
3
 72
8
 73
4
 74
0
 40
0
 40
0
 40
0
 40
0
 40
1
 40
1
 40
1
 40
1
 10
433.577615
 20
677.737682
 30
0.0
 10
433.633737
 20
679.838378
 30
0.0
 10
433.904993
 20
680.984212
 30
0.0
 10
434.391384
 20
681.175184
 30
0.0
  0
SPLINE
  5
379
100
AcDbEntity
  8
newlayer
 62
7
100
AcDbSpline
 70
8
 71
3
 72
8
 73
4
 74
0
 40
0
 40
0
 40
0
 40
0
 40
1
 40
1
 40
1
 40
1
 10
434.391384
 20
681.175184
 30
0.0
 10
434.297850
 20
680.384014
 30
0.0
 10
434.297850
 20
679.620124
 30
0.0
 10
434.391384
 20
678.883516
 30
0.0
  0
SPLINE
  5
37a
100
AcDbEntity
  8
newlayer
 62
7
100
AcDbSpline
 70
8
 71
3
 72
8
 73
4
 74
0
 40
0
 40
0
 40
0
 40
0
 40
1
 40
1
 40
1
 40
1
 10
434.391384
 20
678.883516
 30
0.0
 10
434.559754
 20
678.037782
 30
0.0
 10
434.756182
 20
677.614914
 30
0.0
 10
434.980669
 20
677.614914
 30
0.0
  0
SPLINE
  5
37b
100
AcDbEntity
  8
newlayer
 62
7
100
AcDbSpline
 70
8
 71
3
 72
8
 73
4
 74
0
 40
0
 40
0
 40
0
 40
0
 40
1
 40
1
 40
1
 40
1
 10
434.980669
 20
677.614914
 30
0.0
 10
435.205160
 20
677.614914
 30
0.0
 10
435.410943
 20
678.037782
 30
0.0
 10
435.598017
 20
678.883516
 30
0.0
  0
SPLINE
  5
37c
100
AcDbEntity
  8
newlayer
 62
7
100
AcDbSpline
 70
8
 71
3
 72
8
 73
4
 74
0
 40
0
 40
0
 40
0
 40
0
 40
1
 40
1
 40
1
 40
1
 10
435.598017
 20
678.883516
 30
0.0
 10
435.803800
 20
679.729251
 30
0.0
 10
435.906691
 20
680.697753
 30
0.0
 10
435.906691
 20
681.789024
 30
0.0
  0
SPLINE
  5
37d
100
AcDbEntity
  8
newlayer
 62
7
100
AcDbSpline
 70
8
 71
3
 72
8
 73
4
 74
0
 40
0
 40
0
 40
0
 40
0
 40
1
 40
1
 40
1
 40
1
 10
435.906691
 20
681.789024
 30
0.0
 10
435.906691
 20
682.198250
 30
0.0
 10
435.887977
 20
682.580195
 30
0.0
 10
435.850548
 20
682.934858
 30
0.0
  0
SPLINE
  5
37e
100
AcDbEntity
  8
newlayer
 62
7
100
AcDbSpline
 70
8
 71
3
 72
8
 73
4
 74
0
 40
0
 40
0
 40
0
 40
0
 40
1
 40
1
 40
1
 40
1
 10
435.850548
 20
682.934858
 30
0.0
 10
436.205992
 20
682.771168
 30
0.0
 10
436.383714
 20
682.184610
 30
0.0
 10
436.383714
 20
681.175184
 30
0.0
  0
SPLINE
  5
37f
100
AcDbEntity
  8
newlayer
 62
7
100
AcDbSpline
 70
8
 71
3
 72
8
 73
4
 74
0
 40
0
 40
0
 40
0
 40
0
 40
1
 40
1
 40
1
 40
1
 10
436.383714
 20
681.175184
 30
0.0
 10
436.383714
 20
680.820522
 30
0.0
 10
436.355653
 20
680.261246
 30
0.0
 10
436.299531
 20
679.497356
 30
0.0
  0
SPLINE
  5
380
100
AcDbEntity
  8
newlayer
 62
7
100
AcDbSpline
 70
8
 71
3
 72
8
 73
4
 74
0
 40
0
 40
0
 40
0
 40
0
 40
1
 40
1
 40
1
 40
1
 10
436.299531
 20
679.497356
 30
0.0
 10
436.243410
 20
678.760749
 30
0.0
 10
436.215349
 20
678.242395
 30
0.0
 10
436.215349
 20
677.942295
 30
0.0
  0
SPLINE
  5
381
100
AcDbEntity
  8
newlayer
 62
7
100
AcDbSpline
 70
8
 71
3
 72
8
 73
4
 74
0
 40
0
 40
0
 40
0
 40
0
 40
1
 40
1
 40
1
 40
1
 10
436.215349
 20
677.942295
 30
0.0
 10
436.215349
 20
677.369378
 30
0.0
 10
436.308886
 20
677.041997
 30
0.0
 10
436.495960
 20
676.960152
 30
0.0
  0
SPLINE
  5
382
100
AcDbEntity
  8
newlayer
 62
7
100
AcDbSpline
 70
8
 71
3
 72
8
 73
4
 74
0
 40
0
 40
0
 40
0
 40
0
 40
1
 40
1
 40
1
 40
1
 10
436.495960
 20
676.960152
 30
0.0
 10
436.645621
 20
676.905592
 30
0.0
 10
436.860755
 20
677.383023
 30
0.0
 10
437.141363
 20
678.392445
 30
0.0
  0
SPLINE
  5
383
100
AcDbEntity
  8
newlayer
 62
7
100
AcDbSpline
 70
8
 71
3
 72
8
 73
4
 74
0
 40
0
 40
0
 40
0
 40
0
 40
1
 40
1
 40
1
 40
1
 10
437.141363
 20
678.392445
 30
0.0
 10
437.421977
 20
679.429151
 30
0.0
 10
437.646466
 20
679.906582
 30
0.0
 10
437.814831
 20
679.824737
 30
0.0
  0
SPLINE
  5
384
100
AcDbEntity
  8
newlayer
 62
7
100
AcDbSpline
 70
8
 71
3
 72
8
 73
4
 74
0
 40
0
 40
0
 40
0
 40
0
 40
1
 40
1
 40
1
 40
1
 10
437.814831
 20
679.824737
 30
0.0
 10
437.702587
 20
679.251820
 30
0.0
 10
437.646466
 20
678.692544
 30
0.0
 10
437.646466
 20
678.146909
 30
0.0
  0
SPLINE
  5
385
100
AcDbEntity
  8
newlayer
 62
7
100
AcDbSpline
 70
8
 71
3
 72
8
 73
4
 74
0
 40
0
 40
0
 40
0
 40
0
 40
1
 40
1
 40
1
 40
1
 10
437.646466
 20
678.146909
 30
0.0
 10
437.646466
 20
676.946511
 30
0.0
 10
437.889664
 20
676.332671
 30
0.0
 10
438.376060
 20
676.305390
 30
0.0
  0
SPLINE
  5
386
100
AcDbEntity
  8
newlayer
 62
7
100
AcDbSpline
 70
8
 71
3
 72
8
 73
4
 74
0
 40
0
 40
0
 40
0
 40
0
 40
1
 40
1
 40
1
 40
1
 10
438.376060
 20
676.305390
 30
0.0
 10
439.068234
 20
676.278106
 30
0.0
 10
439.433027
 20
676.905586
 30
0.0
 10
439.470439
 20
678.187831
 30
0.0
  0
SPLINE
  5
387
100
AcDbEntity
  8
newlayer
 62
7
100
AcDbSpline
 70
8
 71
3
 72
8
 73
4
 74
0
 40
0
 40
0
 40
0
 40
0
 40
1
 40
1
 40
1
 40
1
 10
439.470439
 20
678.187831
 30
0.0
 10
439.470439
 20
678.897157
 30
0.0
 10
439.386257
 20
679.852019
 30
0.0
 10
439.217892
 20
681.052417
 30
0.0
  0
SPLINE
  5
388
100
AcDbEntity
  8
newlayer
 62
7
100
AcDbSpline
 70
8
 71
3
 72
8
 73
4
 74
0
 40
0
 40
0
 40
0
 40
0
 40
1
 40
1
 40
1
 40
1
 10
439.217892
 20
681.052417
 30
0.0
 10
439.704289
 20
680.561345
 30
0.0
 10
440.022315
 20
680.015710
 30
0.0
 10
440.171970
 20
679.415511
 30
0.0
  0
SPLINE
  5
389
100
AcDbEntity
  8
newlayer
 62
7
100
AcDbSpline
 70
8
 71
3
 72
8
 73
4
 74
0
 40
0
 40
0
 40
0
 40
0
 40
1
 40
1
 40
1
 40
1
 10
440.171970
 20
679.415511
 30
0.0
 10
440.340340
 20
678.842594
 30
0.0
 10
440.396465
 20
678.024141
 30
0.0
 10
440.340343
 20
676.960152
 30
0.0
  0
LWPOLYLINE
  5
38a
100
AcDbEntity
  8
newlayer
 62
7
100
AcDbPolyline
 90
9
 70
0
 10
442.529168
 20
652.365633
 30
0.0
 10
442.501096
 20
650.483191
 30
0.0
 10
434.896519
 20
650.360423
 30
0.0
 10
431.136326
 20
650.483191
 30
0.0
 10
431.080183
 20
652.856705
 30
0.0
 10
430.799572
 20
658.544953
 30
0.0
 10
430.434779
 20
664.969809
 30
0.0
 10
430.378635
 20
668.857460
 30
0.0
 10
429.985779
 20
673.236184
 30
0.0
  0
SPLINE
  5
38b
100
AcDbEntity
  8
newlayer
 62
7
100
AcDbSpline
 70
8
 71
3
 72
8
 73
4
 74
0
 40
0
 40
0
 40
0
 40
0
 40
1
 40
1
 40
1
 40
1
 10
403.877956
 20
613.490405
 30
0.0
 10
403.934083
 20
613.899631
 30
0.0
 10
404.036975
 20
614.377062
 30
0.0
 10
404.186630
 20
614.922698
 30
0.0
  0
SPLINE
  5
38c
100
AcDbEntity
  8
newlayer
 62
7
100
AcDbSpline
 70
8
 71
3
 72
8
 73
4
 74
0
 40
0
 40
0
 40
0
 40
0
 40
1
 40
1
 40
1
 40
1
 10
404.186630
 20
614.922698
 30
0.0
 10
404.280170
 20
615.031824
 30
0.0
 10
404.326940
 20
615.195515
 30
0.0
 10
404.326940
 20
615.413769
 30
0.0
  0
SPLINE
  5
38d
100
AcDbEntity
  8
newlayer
 62
7
100
AcDbSpline
 70
8
 71
3
 72
8
 73
4
 74
0
 40
0
 40
0
 40
0
 40
0
 40
1
 40
1
 40
1
 40
1
 10
404.326940
 20
615.413769
 30
0.0
 10
404.326940
 20
615.577460
 30
0.0
 10
404.298879
 20
615.822996
 30
0.0
 10
404.242757
 20
616.150377
 30
0.0
  0
SPLINE
  5
38e
100
AcDbEntity
  8
newlayer
 62
7
100
AcDbSpline
 70
8
 71
3
 72
8
 73
4
 74
0
 40
0
 40
0
 40
0
 40
0
 40
1
 40
1
 40
1
 40
1
 10
404.242757
 20
616.150377
 30
0.0
 10
404.186636
 20
616.477758
 30
0.0
 10
404.158575
 20
616.723294
 30
0.0
 10
404.158575
 20
616.886985
 30
0.0
  0
SPLINE
  5
38f
100
AcDbEntity
  8
newlayer
 62
7
100
AcDbSpline
 70
8
 71
3
 72
8
 73
4
 74
0
 40
0
 40
0
 40
0
 40
0
 40
1
 40
1
 40
1
 40
1
 10
404.158575
 20
616.886985
 30
0.0
 10
404.158575
 20
616.996111
 30
0.0
 10
404.158575
 20
617.118879
 30
0.0
 10
404.158575
 20
617.255288
 30
0.0
  0
SPLINE
  5
390
100
AcDbEntity
  8
newlayer
 62
7
100
AcDbSpline
 70
8
 71
3
 72
8
 73
4
 74
0
 40
0
 40
0
 40
0
 40
0
 40
1
 40
1
 40
1
 40
1
 10
404.158575
 20
617.255288
 30
0.0
 10
404.177290
 20
617.391697
 30
0.0
 10
404.214702
 20
617.569029
 30
0.0
 10
404.270813
 20
617.787283
 30
0.0
  0
SPLINE
  5
391
100
AcDbEntity
  8
newlayer
 62
7
100
AcDbSpline
 70
8
 71
3
 72
8
 73
4
 74
0
 40
0
 40
0
 40
0
 40
0
 40
1
 40
1
 40
1
 40
1
 10
404.270813
 20
617.787283
 30
0.0
 10
404.345643
 20
618.032819
 30
0.0
 10
404.392413
 20
618.210150
 30
0.0
 10
404.411122
 20
618.319277
 30
0.0
  0
SPLINE
  5
392
100
AcDbEntity
  8
newlayer
 62
7
100
AcDbSpline
 70
8
 71
3
 72
8
 73
4
 74
0
 40
0
 40
0
 40
0
 40
0
 40
1
 40
1
 40
1
 40
1
 10
404.411122
 20
618.319277
 30
0.0
 10
404.411122
 20
618.346561
 30
0.0
 10
404.411122
 20
618.769428
 30
0.0
 10
404.411122
 20
619.587880
 30
0.0
  0
SPLINE
  5
393
100
AcDbEntity
  8
newlayer
 62
7
100
AcDbSpline
 70
8
 71
3
 72
8
 73
4
 74
0
 40
0
 40
0
 40
0
 40
0
 40
1
 40
1
 40
1
 40
1
 10
404.411122
 20
619.587880
 30
0.0
 10
404.411122
 20
620.269924
 30
0.0
 10
404.093096
 20
621.320272
 30
0.0
 10
403.457044
 20
622.738924
 30
0.0
  0
LWPOLYLINE
  5
394
100
AcDbEntity
  8
newlayer
 62
7
100
AcDbPolyline
 90
1
 70
1
 10
440.340343
 20
676.960152
 30
0.0
  0
SPLINE
  5
395
100
AcDbEntity
  8
newlayer
 62
7
100
AcDbSpline
 70
8
 71
3
 72
8
 73
4
 74
0
 40
0
 40
0
 40
0
 40
0
 40
1
 40
1
 40
1
 40
1
 10
401.548880
 20
624.785055
 30
0.0
 10
400.875416
 20
625.139719
 30
0.0
 10
400.304840
 20
625.317050
 30
0.0
 10
399.837153
 20
625.317050
 30
0.0
  0
SPLINE
  5
396
100
AcDbEntity
  8
newlayer
 62
7
100
AcDbSpline
 70
8
 71
3
 72
8
 73
4
 74
0
 40
0
 40
0
 40
0
 40
0
 40
1
 40
1
 40
1
 40
1
 10
399.837153
 20
625.317050
 30
0.0
 10
399.556539
 20
625.317050
 30
0.0
 10
399.332050
 20
625.248846
 30
0.0
 10
399.163685
 20
625.112436
 30
0.0
  0
LWPOLYLINE
  5
397
100
AcDbEntity
  8
newlayer
 62
7
100
AcDbPolyline
 90
2
 70
0
 10
403.457044
 20
622.738924
 30
0.0
 10
401.548880
 20
624.785055
 30
0.0
  0
SPLINE
  5
398
100
AcDbEntity
  8
newlayer
 62
7
100
AcDbSpline
 70
8
 71
3
 72
8
 73
4
 74
0
 40
0
 40
0
 40
0
 40
0
 40
1
 40
1
 40
1
 40
1
 10
397.339703
 20
615.495614
 30
0.0
 10
397.339703
 20
614.649879
 30
0.0
 10
397.358418
 20
613.763222
 30
0.0
 10
397.395847
 20
612.835642
 30
0.0
  0
SPLINE
  5
399
100
AcDbEntity
  8
newlayer
 62
7
100
AcDbSpline
 70
8
 71
3
 72
8
 73
4
 74
0
 40
0
 40
0
 40
0
 40
0
 40
1
 40
1
 40
1
 40
1
 10
397.395847
 20
612.835642
 30
0.0
 10
397.601630
 20
612.890202
 30
0.0
 10
397.826119
 20
612.917482
 30
0.0
 10
398.069314
 20
612.917482
 30
0.0
  0
SPLINE
  5
39a
100
AcDbEntity
  8
newlayer
 62
7
100
AcDbSpline
 70
8
 71
3
 72
8
 73
4
 74
0
 40
0
 40
0
 40
0
 40
0
 40
1
 40
1
 40
1
 40
1
 10
398.069314
 20
612.917482
 30
0.0
 10
398.275097
 20
612.835637
 30
0.0
 10
398.490232
 20
612.671947
 30
0.0
 10
398.714718
 20
612.426411
 30
0.0
  0
SPLINE
  5
39b
100
AcDbEntity
  8
newlayer
 62
7
100
AcDbSpline
 70
8
 71
3
 72
8
 73
4
 74
0
 40
0
 40
0
 40
0
 40
0
 40
1
 40
1
 40
1
 40
1
 10
398.714718
 20
612.426411
 30
0.0
 10
398.770840
 20
612.726510
 30
0.0
 10
398.845670
 20
612.890201
 30
0.0
 10
398.939210
 20
612.917482
 30
0.0
  0
SPLINE
  5
39c
100
AcDbEntity
  8
newlayer
 62
7
100
AcDbSpline
 70
8
 71
3
 72
8
 73
4
 74
0
 40
0
 40
0
 40
0
 40
0
 40
1
 40
1
 40
1
 40
1
 10
398.939210
 20
612.917482
 30
0.0
 10
398.995332
 20
612.808356
 30
0.0
 10
399.070162
 20
612.590102
 30
0.0
 10
399.163702
 20
612.262720
 30
0.0
  0
SPLINE
  5
39d
100
AcDbEntity
  8
newlayer
 62
7
100
AcDbSpline
 70
8
 71
3
 72
8
 73
4
 74
0
 40
0
 40
0
 40
0
 40
0
 40
1
 40
1
 40
1
 40
1
 10
399.163702
 20
612.262720
 30
0.0
 10
399.182416
 20
612.126311
 30
0.0
 10
399.219832
 20
612.058107
 30
0.0
 10
399.275948
 20
612.058107
 30
0.0
  0
SPLINE
  5
39e
100
AcDbEntity
  8
newlayer
 62
7
100
AcDbSpline
 70
8
 71
3
 72
8
 73
4
 74
0
 40
0
 40
0
 40
0
 40
0
 40
1
 40
1
 40
1
 40
1
 10
399.275948
 20
612.058107
 30
0.0
 10
399.332069
 20
612.058107
 30
0.0
 10
399.425606
 20
612.139952
 30
0.0
 10
399.556558
 20
612.303643
 30
0.0
  0
SPLINE
  5
39f
100
AcDbEntity
  8
newlayer
 62
7
100
AcDbSpline
 70
8
 71
3
 72
8
 73
4
 74
0
 40
0
 40
0
 40
0
 40
0
 40
1
 40
1
 40
1
 40
1
 10
399.556558
 20
612.303643
 30
0.0
 10
399.706214
 20
612.494615
 30
0.0
 10
399.827812
 20
612.590101
 30
0.0
 10
399.921351
 20
612.590101
 30
0.0
  0
SPLINE
  5
3a0
100
AcDbEntity
  8
newlayer
 62
7
100
AcDbSpline
 70
8
 71
3
 72
8
 73
4
 74
0
 40
0
 40
0
 40
0
 40
0
 40
1
 40
1
 40
1
 40
1
 10
399.921351
 20
612.590101
 30
0.0
 10
399.977473
 20
612.590101
 30
0.0
 10
400.276793
 20
612.521897
 30
0.0
 10
400.819311
 20
612.385489
 30
0.0
  0
SPLINE
  5
3a1
100
AcDbEntity
  8
newlayer
 62
7
100
AcDbSpline
 70
8
 71
3
 72
8
 73
4
 74
0
 40
0
 40
0
 40
0
 40
0
 40
1
 40
1
 40
1
 40
1
 10
400.819311
 20
612.385489
 30
0.0
 10
401.361823
 20
612.276361
 30
0.0
 10
401.754680
 20
612.221798
 30
0.0
 10
401.997880
 20
612.221798
 30
0.0
  0
SPLINE
  5
3a2
100
AcDbEntity
  8
newlayer
 62
7
100
AcDbSpline
 70
8
 71
3
 72
8
 73
4
 74
0
 40
0
 40
0
 40
0
 40
0
 40
1
 40
1
 40
1
 40
1
 10
401.997880
 20
612.221798
 30
0.0
 10
402.297197
 20
612.221798
 30
0.0
 10
402.474917
 20
612.290002
 30
0.0
 10
402.531038
 20
612.426411
 30
0.0
  0
SPLINE
  5
3a3
100
AcDbEntity
  8
newlayer
 62
7
100
AcDbSpline
 70
8
 71
3
 72
8
 73
4
 74
0
 40
0
 40
0
 40
0
 40
0
 40
1
 40
1
 40
1
 40
1
 10
402.531038
 20
612.426411
 30
0.0
 10
402.905191
 20
612.671947
 30
0.0
 10
403.354169
 20
613.026610
 30
0.0
 10
403.877973
 20
613.490400
 30
0.0
  0
LWPOLYLINE
  5
3a4
100
AcDbEntity
  8
newlayer
 62
7
100
AcDbPolyline
 90
5
 70
0
 10
399.163685
 20
625.112436
 30
0.0
 10
398.321845
 20
624.334907
 30
0.0
 10
397.816742
 20
622.779846
 30
0.0
 10
397.620314
 20
619.260497
 30
0.0
 10
397.339703
 20
615.495614
 30
0.0
  0
SPLINE
  5
3a5
100
AcDbEntity
  8
newlayer
 62
7
100
AcDbSpline
 70
8
 71
3
 72
8
 73
4
 74
0
 40
0
 40
0
 40
0
 40
0
 40
1
 40
1
 40
1
 40
1
 10
395.319302
 20
625.194281
 30
0.0
 10
395.730867
 20
625.248842
 30
0.0
 10
395.936650
 20
625.726273
 30
0.0
 10
395.936650
 20
626.626575
 30
0.0
  0
SPLINE
  5
3a6
100
AcDbEntity
  8
newlayer
 62
7
100
AcDbSpline
 70
8
 71
3
 72
8
 73
4
 74
0
 40
0
 40
0
 40
0
 40
0
 40
1
 40
1
 40
1
 40
1
 10
395.936650
 20
626.626575
 30
0.0
 10
395.936650
 20
627.390464
 30
0.0
 10
395.796343
 20
628.481735
 30
0.0
 10
395.515730
 20
629.900386
 30
0.0
  0
SPLINE
  5
3a7
100
AcDbEntity
  8
newlayer
 62
7
100
AcDbSpline
 70
8
 71
3
 72
8
 73
4
 74
0
 40
0
 40
0
 40
0
 40
0
 40
1
 40
1
 40
1
 40
1
 10
395.515730
 20
629.900386
 30
0.0
 10
396.058248
 20
629.081934
 30
0.0
 10
396.357567
 20
628.481735
 30
0.0
 10
396.413689
 20
628.099790
 30
0.0
  0
LWPOLYLINE
  5
3a8
100
AcDbEntity
  8
newlayer
 62
7
100
AcDbPolyline
 90
1
 70
1
 10
403.877973
 20
613.490400
 30
0.0
  0
SPLINE
  5
3a9
100
AcDbEntity
  8
newlayer
 62
7
100
AcDbSpline
 70
8
 71
3
 72
8
 73
4
 74
0
 40
0
 40
0
 40
0
 40
0
 40
1
 40
1
 40
1
 40
1
 10
396.890728
 20
626.258271
 30
0.0
 10
396.965559
 20
625.958171
 30
0.0
 10
397.087156
 20
625.808121
 30
0.0
 10
397.255521
 20
625.808121
 30
0.0
  0
SPLINE
  5
3aa
100
AcDbEntity
  8
newlayer
 62
7
100
AcDbSpline
 70
8
 71
3
 72
8
 73
4
 74
0
 40
0
 40
0
 40
0
 40
0
 40
1
 40
1
 40
1
 40
1
 10
397.255521
 20
625.808121
 30
0.0
 10
397.423891
 20
625.808121
 30
0.0
 10
397.573553
 20
625.944530
 30
0.0
 10
397.704505
 20
626.217349
 30
0.0
  0
SPLINE
  5
3ab
100
AcDbEntity
  8
newlayer
 62
7
100
AcDbSpline
 70
8
 71
3
 72
8
 73
4
 74
0
 40
0
 40
0
 40
0
 40
0
 40
1
 40
1
 40
1
 40
1
 10
397.704505
 20
626.217349
 30
0.0
 10
397.835457
 20
626.517448
 30
0.0
 10
397.910285
 20
626.967597
 30
0.0
 10
397.928988
 20
627.567796
 30
0.0
  0
SPLINE
  5
3ac
100
AcDbEntity
  8
newlayer
 62
7
100
AcDbSpline
 70
8
 71
3
 72
8
 73
4
 74
0
 40
0
 40
0
 40
0
 40
0
 40
1
 40
1
 40
1
 40
1
 10
397.928988
 20
627.567796
 30
0.0
 10
397.966417
 20
628.167994
 30
0.0
 10
397.929002
 20
628.686348
 30
0.0
 10
397.816742
 20
629.122856
 30
0.0
  0
SPLINE
  5
3ad
100
AcDbEntity
  8
newlayer
 62
7
100
AcDbSpline
 70
8
 71
3
 72
8
 73
4
 74
0
 40
0
 40
0
 40
0
 40
0
 40
1
 40
1
 40
1
 40
1
 10
397.816742
 20
629.122856
 30
0.0
 10
398.153477
 20
628.822757
 30
0.0
 10
398.368615
 20
628.495376
 30
0.0
 10
398.462154
 20
628.140713
 30
0.0
  0
SPLINE
  5
3ae
100
AcDbEntity
  8
newlayer
 62
7
100
AcDbSpline
 70
8
 71
3
 72
8
 73
4
 74
0
 40
0
 40
0
 40
0
 40
0
 40
1
 40
1
 40
1
 40
1
 10
398.462154
 20
628.140713
 30
0.0
 10
398.499584
 20
627.977022
 30
0.0
 10
398.546351
 20
627.540514
 30
0.0
 10
398.602456
 20
626.831188
 30
0.0
  0
SPLINE
  5
3af
100
AcDbEntity
  8
newlayer
 62
7
100
AcDbSpline
 70
8
 71
3
 72
8
 73
4
 74
0
 40
0
 40
0
 40
0
 40
0
 40
1
 40
1
 40
1
 40
1
 10
398.602456
 20
626.831188
 30
0.0
 10
398.677286
 20
626.531088
 30
0.0
 10
398.733411
 20
626.381038
 30
0.0
 10
398.770829
 20
626.381038
 30
0.0
  0
SPLINE
  5
3b0
100
AcDbEntity
  8
newlayer
 62
7
100
AcDbSpline
 70
8
 71
3
 72
8
 73
4
 74
0
 40
0
 40
0
 40
0
 40
0
 40
1
 40
1
 40
1
 40
1
 10
398.770829
 20
626.381038
 30
0.0
 10
398.770829
 20
626.381038
 30
0.0
 10
398.826950
 20
626.421961
 30
0.0
 10
398.939193
 20
626.503807
 30
0.0
  0
SPLINE
  5
3b1
100
AcDbEntity
  8
newlayer
 62
7
100
AcDbSpline
 70
8
 71
3
 72
8
 73
4
 74
0
 40
0
 40
0
 40
0
 40
0
 40
1
 40
1
 40
1
 40
1
 10
398.939193
 20
626.503807
 30
0.0
 10
399.051437
 20
626.585652
 30
0.0
 10
399.173034
 20
626.599294
 30
0.0
 10
399.303986
 20
626.544733
 30
0.0
  0
SPLINE
  5
3b2
100
AcDbEntity
  8
newlayer
 62
7
100
AcDbSpline
 70
8
 71
3
 72
8
 73
4
 74
0
 40
0
 40
0
 40
0
 40
0
 40
1
 40
1
 40
1
 40
1
 10
399.303986
 20
626.544733
 30
0.0
 10
400.389022
 20
626.762987
 30
0.0
 10
401.315042
 20
626.872114
 30
0.0
 10
402.082046
 20
626.872114
 30
0.0
  0
SPLINE
  5
3b3
100
AcDbEntity
  8
newlayer
 62
7
100
AcDbSpline
 70
8
 71
3
 72
8
 73
4
 74
0
 40
0
 40
0
 40
0
 40
0
 40
1
 40
1
 40
1
 40
1
 10
402.082046
 20
626.872114
 30
0.0
 10
402.811638
 20
626.872114
 30
0.0
 10
403.298031
 20
626.762987
 30
0.0
 10
403.541227
 20
626.544733
 30
0.0
  0
SPLINE
  5
3b4
100
AcDbEntity
  8
newlayer
 62
7
100
AcDbSpline
 70
8
 71
3
 72
8
 73
4
 74
0
 40
0
 40
0
 40
0
 40
0
 40
1
 40
1
 40
1
 40
1
 10
403.541227
 20
626.544733
 30
0.0
 10
404.027617
 20
626.108225
 30
0.0
 10
404.308228
 20
625.753562
 30
0.0
 10
404.383059
 20
625.480744
 30
0.0
  0
SPLINE
  5
3b5
100
AcDbEntity
  8
newlayer
 62
7
100
AcDbSpline
 70
8
 71
3
 72
8
 73
4
 74
0
 40
0
 40
0
 40
0
 40
0
 40
1
 40
1
 40
1
 40
1
 10
404.383059
 20
625.480744
 30
0.0
 10
404.457889
 20
625.398899
 30
0.0
 10
404.616902
 20
625.235208
 30
0.0
 10
404.860098
 20
624.989673
 30
0.0
  0
SPLINE
  5
3b6
100
AcDbEntity
  8
newlayer
 62
7
100
AcDbSpline
 70
8
 71
3
 72
8
 73
4
 74
0
 40
0
 40
0
 40
0
 40
0
 40
1
 40
1
 40
1
 40
1
 10
404.860098
 20
624.989673
 30
0.0
 10
404.897527
 20
624.962389
 30
0.0
 10
405.037833
 20
624.716852
 30
0.0
 10
405.281018
 20
624.253064
 30
0.0
  0
LWPOLYLINE
  5
3b7
100
AcDbEntity
  8
newlayer
 62
7
100
AcDbPolyline
 90
2
 70
0
 10
396.413689
 20
628.099790
 30
0.0
 10
396.890728
 20
626.258271
 30
0.0
  0
SPLINE
  5
3b8
100
AcDbEntity
  8
newlayer
 62
7
100
AcDbSpline
 70
8
 71
3
 72
8
 73
4
 74
0
 40
0
 40
0
 40
0
 40
0
 40
1
 40
1
 40
1
 40
1
 10
405.505510
 20
623.843838
 30
0.0
 10
405.954488
 20
623.270921
 30
0.0
 10
406.263159
 20
622.807131
 30
0.0
 10
406.431524
 20
622.452469
 30
0.0
  0
SPLINE
  5
3b9
100
AcDbEntity
  8
newlayer
 62
7
100
AcDbSpline
 70
8
 71
3
 72
8
 73
4
 74
0
 40
0
 40
0
 40
0
 40
0
 40
1
 40
1
 40
1
 40
1
 10
406.431524
 20
622.452469
 30
0.0
 10
406.693428
 20
621.824988
 30
0.0
 10
406.824381
 20
621.061098
 30
0.0
 10
406.824381
 20
620.160799
 30
0.0
  0
SPLINE
  5
3ba
100
AcDbEntity
  8
newlayer
 62
7
100
AcDbSpline
 70
8
 71
3
 72
8
 73
4
 74
0
 40
0
 40
0
 40
0
 40
0
 40
1
 40
1
 40
1
 40
1
 10
406.824381
 20
620.160799
 30
0.0
 10
406.786952
 20
619.533319
 30
0.0
 10
406.730830
 20
618.523894
 30
0.0
 10
406.656016
 20
617.132524
 30
0.0
  0
SPLINE
  5
3bb
100
AcDbEntity
  8
newlayer
 62
7
100
AcDbSpline
 70
8
 71
3
 72
8
 73
4
 74
0
 40
0
 40
0
 40
0
 40
0
 40
1
 40
1
 40
1
 40
1
 10
406.656016
 20
617.132524
 30
0.0
 10
406.618587
 20
616.013971
 30
0.0
 10
406.319267
 20
614.813574
 30
0.0
 10
405.758057
 20
613.531331
 30
0.0
  0
SPLINE
  5
3bc
100
AcDbEntity
  8
newlayer
 62
7
100
AcDbSpline
 70
8
 71
3
 72
8
 73
4
 74
0
 40
0
 40
0
 40
0
 40
0
 40
1
 40
1
 40
1
 40
1
 10
405.758057
 20
613.531331
 30
0.0
 10
405.159417
 20
612.167243
 30
0.0
 10
404.523365
 20
611.348790
 30
0.0
 10
403.849901
 20
611.075972
 30
0.0
  0
SPLINE
  5
3bd
100
AcDbEntity
  8
newlayer
 62
7
100
AcDbSpline
 70
8
 71
3
 72
8
 73
4
 74
0
 40
0
 40
0
 40
0
 40
0
 40
1
 40
1
 40
1
 40
1
 10
403.849901
 20
611.075972
 30
0.0
 10
403.120309
 20
610.775873
 30
0.0
 10
402.212998
 20
610.694028
 30
0.0
 10
401.127968
 20
610.830437
 30
0.0
  0
SPLINE
  5
3be
100
AcDbEntity
  8
newlayer
 62
7
100
AcDbSpline
 70
8
 71
3
 72
8
 73
4
 74
0
 40
0
 40
0
 40
0
 40
0
 40
1
 40
1
 40
1
 40
1
 10
401.127968
 20
610.830437
 30
0.0
 10
399.219807
 20
611.021408
 30
0.0
 10
397.957052
 20
611.116894
 30
0.0
 10
397.339703
 20
611.116894
 30
0.0
  0
LWPOLYLINE
  5
3bf
100
AcDbEntity
  8
newlayer
 62
7
100
AcDbPolyline
 90
2
 70
0
 10
405.281018
 20
624.253064
 30
0.0
 10
405.505510
 20
623.843838
 30
0.0
  0
SPLINE
  5
3c0
100
AcDbEntity
  8
newlayer
 62
7
100
AcDbSpline
 70
8
 71
3
 72
8
 73
4
 74
0
 40
0
 40
0
 40
0
 40
0
 40
1
 40
1
 40
1
 40
1
 10
394.056541
 20
625.808101
 30
0.0
 10
393.981711
 20
626.190046
 30
0.0
 10
393.944295
 20
626.599272
 30
0.0
 10
393.944295
 20
627.035780
 30
0.0
  0
SPLINE
  5
3c1
100
AcDbEntity
  8
newlayer
 62
7
100
AcDbSpline
 70
8
 71
3
 72
8
 73
4
 74
0
 40
0
 40
0
 40
0
 40
0
 40
1
 40
1
 40
1
 40
1
 10
393.944295
 20
627.035780
 30
0.0
 10
393.944295
 20
627.772388
 30
0.0
 10
394.084602
 20
628.345306
 30
0.0
 10
394.365215
 20
628.754532
 30
0.0
  0
SPLINE
  5
3c2
100
AcDbEntity
  8
newlayer
 62
7
100
AcDbSpline
 70
8
 71
3
 72
8
 73
4
 74
0
 40
0
 40
0
 40
0
 40
0
 40
1
 40
1
 40
1
 40
1
 10
394.365215
 20
628.754532
 30
0.0
 10
394.552289
 20
626.326455
 30
0.0
 10
394.870315
 20
625.139698
 30
0.0
 10
395.319293
 20
625.194261
 30
0.0
  0
LWPOLYLINE
  5
3c3
100
AcDbEntity
  8
newlayer
 62
7
100
AcDbPolyline
 90
10
 70
0
 10
397.339703
 20
611.116894
 30
0.0
 10
397.171339
 20
607.924928
 30
0.0
 10
397.002974
 20
600.558846
 30
0.0
 10
396.862664
 20
597.244120
 30
0.0
 10
394.758080
 20
597.162244
 30
0.0
 10
394.758080
 20
604.732937
 30
0.0
 10
394.477470
 20
612.631008
 30
0.0
 10
394.393279
 20
620.733693
 30
0.0
 10
394.084613
 20
624.621345
 30
0.0
 10
394.056541
 20
625.808101
 30
0.0
  0
SPLINE
  5
3c4
100
AcDbEntity
  8
newlayer
 62
7
100
AcDbSpline
 70
8
 71
3
 72
8
 73
4
 74
0
 40
0
 40
0
 40
0
 40
0
 40
1
 40
1
 40
1
 40
1
 10
415.285264
 20
623.802912
 30
0.0
 10
415.154312
 20
625.357972
 30
0.0
 10
415.313325
 20
626.367398
 30
0.0
 10
415.762303
 20
626.831188
 30
0.0
  0
SPLINE
  5
3c5
100
AcDbEntity
  8
newlayer
 62
7
100
AcDbSpline
 70
8
 71
3
 72
8
 73
4
 74
0
 40
0
 40
0
 40
0
 40
0
 40
1
 40
1
 40
1
 40
1
 10
415.762303
 20
626.831188
 30
0.0
 10
415.706181
 20
626.558370
 30
0.0
 10
415.678121
 20
626.121862
 30
0.0
 10
415.678121
 20
625.521663
 30
0.0
  0
SPLINE
  5
3c6
100
AcDbEntity
  8
newlayer
 62
7
100
AcDbSpline
 70
8
 71
3
 72
8
 73
4
 74
0
 40
0
 40
0
 40
0
 40
0
 40
1
 40
1
 40
1
 40
1
 10
415.678121
 20
625.521663
 30
0.0
 10
415.678121
 20
623.639221
 30
0.0
 10
415.818427
 20
622.698000
 30
0.0
 10
416.099041
 20
622.698000
 30
0.0
  0
SPLINE
  5
3c7
100
AcDbEntity
  8
newlayer
 62
7
100
AcDbSpline
 70
8
 71
3
 72
8
 73
4
 74
0
 40
0
 40
0
 40
0
 40
0
 40
1
 40
1
 40
1
 40
1
 10
416.099041
 20
622.698000
 30
0.0
 10
416.360945
 20
622.698000
 30
0.0
 10
416.491897
 20
622.902613
 30
0.0
 10
416.491897
 20
623.311840
 30
0.0
  0
SPLINE
  5
3c8
100
AcDbEntity
  8
newlayer
 62
7
100
AcDbSpline
 70
8
 71
3
 72
8
 73
4
 74
0
 40
0
 40
0
 40
0
 40
0
 40
1
 40
1
 40
1
 40
1
 10
416.491897
 20
623.311840
 30
0.0
 10
416.491897
 20
623.584658
 30
0.0
 10
416.426421
 20
624.075730
 30
0.0
 10
416.295469
 20
624.785055
 30
0.0
  0
SPLINE
  5
3c9
100
AcDbEntity
  8
newlayer
 62
7
100
AcDbSpline
 70
8
 71
3
 72
8
 73
4
 74
0
 40
0
 40
0
 40
0
 40
0
 40
1
 40
1
 40
1
 40
1
 10
416.295469
 20
624.785055
 30
0.0
 10
416.725738
 20
623.366403
 30
0.0
 10
416.987643
 20
621.988674
 30
0.0
 10
417.081182
 20
620.651868
 30
0.0
  0
SPLINE
  5
3ca
100
AcDbEntity
  8
newlayer
 62
7
100
AcDbSpline
 70
8
 71
3
 72
8
 73
4
 74
0
 40
0
 40
0
 40
0
 40
0
 40
1
 40
1
 40
1
 40
1
 10
417.081182
 20
620.651868
 30
0.0
 10
417.081182
 20
620.460896
 30
0.0
 10
417.109243
 20
618.878553
 30
0.0
 10
417.165365
 20
615.904841
 30
0.0
  0
LWPOLYLINE
  5
3cb
100
AcDbEntity
  8
newlayer
 62
7
100
AcDbPolyline
 90
1
 70
1
 10
395.319293
 20
625.194261
 30
0.0
  0
SPLINE
  5
3cc
100
AcDbEntity
  8
newlayer
 62
7
100
AcDbSpline
 70
8
 71
3
 72
8
 73
4
 74
0
 40
0
 40
0
 40
0
 40
0
 40
1
 40
1
 40
1
 40
1
 10
409.504661
 20
603.300665
 30
0.0
 10
409.167931
 20
601.254535
 30
0.0
 10
409.018273
 20
599.208401
 30
0.0
 10
409.055686
 20
597.162265
 30
0.0
  0
LWPOLYLINE
  5
3cd
100
AcDbEntity
  8
newlayer
 62
7
100
AcDbPolyline
 90
9
 70
0
 10
417.165365
 20
615.904841
 30
0.0
 10
418.259752
 20
610.584897
 30
0.0
 10
419.101584
 20
602.236676
 30
0.0
 10
419.326076
 20
597.162265
 30
0.0
 10
417.866895
 20
597.039498
 30
0.0
 10
417.530158
 20
603.177897
 30
0.0
 10
416.912818
 20
603.055130
 30
0.0
 10
411.749555
 20
603.055130
 30
0.0
 10
409.504661
 20
603.300665
 30
0.0
  0
SPLINE
  5
3ce
100
AcDbEntity
  8
newlayer
 62
7
100
AcDbSpline
 70
8
 71
3
 72
8
 73
4
 74
0
 40
0
 40
0
 40
0
 40
0
 40
1
 40
1
 40
1
 40
1
 10
410.093946
 20
620.283565
 30
0.0
 10
410.056517
 20
620.774636
 30
0.0
 10
410.037802
 20
621.211144
 30
0.0
 10
410.037802
 20
621.593089
 30
0.0
  0
SPLINE
  5
3cf
100
AcDbEntity
  8
newlayer
 62
7
100
AcDbSpline
 70
8
 71
3
 72
8
 73
4
 74
0
 40
0
 40
0
 40
0
 40
0
 40
1
 40
1
 40
1
 40
1
 10
410.037802
 20
621.593089
 30
0.0
 10
410.037802
 20
622.547951
 30
0.0
 10
410.159400
 20
623.270918
 30
0.0
 10
410.402595
 20
623.761989
 30
0.0
  0
SPLINE
  5
3d0
100
AcDbEntity
  8
newlayer
 62
7
100
AcDbSpline
 70
8
 71
3
 72
8
 73
4
 74
0
 40
0
 40
0
 40
0
 40
0
 40
1
 40
1
 40
1
 40
1
 10
410.402595
 20
623.761989
 30
0.0
 10
410.365166
 20
622.916255
 30
0.0
 10
410.393227
 20
622.220570
 30
0.0
 10
410.486778
 20
621.674934
 30
0.0
  0
SPLINE
  5
3d1
100
AcDbEntity
  8
newlayer
 62
7
100
AcDbSpline
 70
8
 71
3
 72
8
 73
4
 74
0
 40
0
 40
0
 40
0
 40
0
 40
1
 40
1
 40
1
 40
1
 10
410.486778
 20
621.674934
 30
0.0
 10
410.580317
 20
621.020172
 30
0.0
 10
410.748685
 20
620.733713
 30
0.0
 10
410.991880
 20
620.815558
 30
0.0
  0
SPLINE
  5
3d2
100
AcDbEntity
  8
newlayer
 62
7
100
AcDbSpline
 70
8
 71
3
 72
8
 73
4
 74
0
 40
0
 40
0
 40
0
 40
0
 40
1
 40
1
 40
1
 40
1
 10
410.991880
 20
620.815558
 30
0.0
 10
411.366028
 20
620.979249
 30
0.0
 10
411.543750
 20
621.702216
 30
0.0
 10
411.525046
 20
622.984459
 30
0.0
  0
SPLINE
  5
3d3
100
AcDbEntity
  8
newlayer
 62
7
100
AcDbSpline
 70
8
 71
3
 72
8
 73
4
 74
0
 40
0
 40
0
 40
0
 40
0
 40
1
 40
1
 40
1
 40
1
 10
411.525046
 20
622.984459
 30
0.0
 10
411.525046
 20
623.393685
 30
0.0
 10
411.496985
 20
624.103011
 30
0.0
 10
411.440864
 20
625.112436
 30
0.0
  0
SPLINE
  5
3d4
100
AcDbEntity
  8
newlayer
 62
7
100
AcDbSpline
 70
8
 71
3
 72
8
 73
4
 74
0
 40
0
 40
0
 40
0
 40
0
 40
1
 40
1
 40
1
 40
1
 10
411.440864
 20
625.112436
 30
0.0
 10
411.384737
 20
626.149144
 30
0.0
 10
411.356673
 20
626.899392
 30
0.0
 10
411.356673
 20
627.363182
 30
0.0
  0
SPLINE
  5
3d5
100
AcDbEntity
  8
newlayer
 62
7
100
AcDbSpline
 70
8
 71
3
 72
8
 73
4
 74
0
 40
0
 40
0
 40
0
 40
0
 40
1
 40
1
 40
1
 40
1
 10
411.356673
 20
627.363182
 30
0.0
 10
411.356673
 20
628.454453
 30
0.0
 10
411.478274
 20
629.204702
 30
0.0
 10
411.721475
 20
629.613929
 30
0.0
  0
LWPOLYLINE
  5
3d6
100
AcDbEntity
  8
newlayer
 62
7
100
AcDbPolyline
 90
5
 70
0
 10
409.055686
 20
597.162265
 30
0.0
 10
407.484259
 20
596.998572
 30
0.0
 10
407.568442
 20
600.149617
 30
0.0
 10
408.606710
 20
609.643676
 30
0.0
 10
410.093946
 20
620.283565
 30
0.0
  0
SPLINE
  5
3d7
100
AcDbEntity
  8
newlayer
 62
7
100
AcDbSpline
 70
8
 71
3
 72
8
 73
4
 74
0
 40
0
 40
0
 40
0
 40
0
 40
1
 40
1
 40
1
 40
1
 10
411.805657
 20
626.831188
 30
0.0
 10
412.142392
 20
625.658072
 30
0.0
 10
412.320111
 20
625.071514
 30
0.0
 10
412.338815
 20
625.071514
 30
0.0
  0
SPLINE
  5
3d8
100
AcDbEntity
  8
newlayer
 62
7
100
AcDbSpline
 70
8
 71
3
 72
8
 73
4
 74
0
 40
0
 40
0
 40
0
 40
0
 40
1
 40
1
 40
1
 40
1
 10
412.338815
 20
625.071514
 30
0.0
 10
412.507185
 20
625.071514
 30
0.0
 10
412.787798
 20
625.985453
 30
0.0
 10
413.180655
 20
627.813332
 30
0.0
  0
SPLINE
  5
3d9
100
AcDbEntity
  8
newlayer
 62
7
100
AcDbSpline
 70
8
 71
3
 72
8
 73
4
 74
0
 40
0
 40
0
 40
0
 40
0
 40
1
 40
1
 40
1
 40
1
 10
413.180655
 20
627.813332
 30
0.0
 10
413.236777
 20
626.994879
 30
0.0
 10
413.152591
 20
626.040017
 30
0.0
 10
412.928100
 20
624.948747
 30
0.0
  0
SPLINE
  5
3da
100
AcDbEntity
  8
newlayer
 62
7
100
AcDbSpline
 70
8
 71
3
 72
8
 73
4
 74
0
 40
0
 40
0
 40
0
 40
0
 40
1
 40
1
 40
1
 40
1
 10
412.928100
 20
624.948747
 30
0.0
 10
412.703613
 20
623.884758
 30
0.0
 10
412.591370
 20
623.229995
 30
0.0
 10
412.591370
 20
622.984459
 30
0.0
  0
SPLINE
  5
3db
100
AcDbEntity
  8
newlayer
 62
7
100
AcDbSpline
 70
8
 71
3
 72
8
 73
4
 74
0
 40
0
 40
0
 40
0
 40
0
 40
1
 40
1
 40
1
 40
1
 10
412.591370
 20
622.984459
 30
0.0
 10
412.591370
 20
622.738923
 30
0.0
 10
412.582013
 20
622.452465
 30
0.0
 10
412.563298
 20
622.125084
 30
0.0
  0
SPLINE
  5
3dc
100
AcDbEntity
  8
newlayer
 62
7
100
AcDbSpline
 70
8
 71
3
 72
8
 73
4
 74
0
 40
0
 40
0
 40
0
 40
0
 40
1
 40
1
 40
1
 40
1
 10
412.563298
 20
622.125084
 30
0.0
 10
412.544584
 20
621.824984
 30
0.0
 10
412.535226
 20
621.620371
 30
0.0
 10
412.535226
 20
621.511244
 30
0.0
  0
SPLINE
  5
3dd
100
AcDbEntity
  8
newlayer
 62
7
100
AcDbSpline
 70
8
 71
3
 72
8
 73
4
 74
0
 40
0
 40
0
 40
0
 40
0
 40
1
 40
1
 40
1
 40
1
 10
412.535226
 20
621.511244
 30
0.0
 10
412.535226
 20
621.211144
 30
0.0
 10
412.600703
 20
621.061094
 30
0.0
 10
412.731655
 20
621.061094
 30
0.0
  0
SPLINE
  5
3de
100
AcDbEntity
  8
newlayer
 62
7
100
AcDbSpline
 70
8
 71
3
 72
8
 73
4
 74
0
 40
0
 40
0
 40
0
 40
0
 40
1
 40
1
 40
1
 40
1
 10
412.731655
 20
621.061094
 30
0.0
 10
412.806485
 20
621.061094
 30
0.0
 10
412.890671
 20
621.088374
 30
0.0
 10
412.984210
 20
621.142934
 30
0.0
  0
SPLINE
  5
3df
100
AcDbEntity
  8
newlayer
 62
7
100
AcDbSpline
 70
8
 71
3
 72
8
 73
4
 74
0
 40
0
 40
0
 40
0
 40
0
 40
1
 40
1
 40
1
 40
1
 10
412.984210
 20
621.142934
 30
0.0
 10
413.189993
 20
621.224780
 30
0.0
 10
413.377067
 20
622.616150
 30
0.0
 10
413.545432
 20
625.317045
 30
0.0
  0
SPLINE
  5
3e0
100
AcDbEntity
  8
newlayer
 62
7
100
AcDbSpline
 70
8
 71
3
 72
8
 73
4
 74
0
 40
0
 40
0
 40
0
 40
0
 40
1
 40
1
 40
1
 40
1
 10
413.545432
 20
625.317045
 30
0.0
 10
413.695093
 20
627.936094
 30
0.0
 10
414.022473
 20
629.313823
 30
0.0
 10
414.527573
 20
629.450233
 30
0.0
  0
SPLINE
  5
3e1
100
AcDbEntity
  8
newlayer
 62
7
100
AcDbSpline
 70
8
 71
3
 72
8
 73
4
 74
0
 40
0
 40
0
 40
0
 40
0
 40
1
 40
1
 40
1
 40
1
 10
414.527573
 20
629.450233
 30
0.0
 10
414.265669
 20
627.704200
 30
0.0
 10
414.134716
 20
626.203703
 30
0.0
 10
414.134716
 20
624.948742
 30
0.0
  0
SPLINE
  5
3e2
100
AcDbEntity
  8
newlayer
 62
7
100
AcDbSpline
 70
8
 71
3
 72
8
 73
4
 74
0
 40
0
 40
0
 40
0
 40
0
 40
1
 40
1
 40
1
 40
1
 10
414.134716
 20
624.948742
 30
0.0
 10
414.134716
 20
623.011736
 30
0.0
 10
414.377915
 20
622.029592
 30
0.0
 10
414.864311
 20
622.002310
 30
0.0
  0
SPLINE
  5
3e3
100
AcDbEntity
  8
newlayer
 62
7
100
AcDbSpline
 70
8
 71
3
 72
8
 73
4
 74
0
 40
0
 40
0
 40
0
 40
0
 40
1
 40
1
 40
1
 40
1
 10
414.864311
 20
622.002310
 30
0.0
 10
415.201040
 20
621.975026
 30
0.0
 10
415.369405
 20
622.152358
 30
0.0
 10
415.369405
 20
622.534305
 30
0.0
  0
SPLINE
  5
3e4
100
AcDbEntity
  8
newlayer
 62
7
100
AcDbSpline
 70
8
 71
3
 72
8
 73
4
 74
0
 40
0
 40
0
 40
0
 40
0
 40
1
 40
1
 40
1
 40
1
 10
415.369405
 20
622.534305
 30
0.0
 10
415.369405
 20
622.725278
 30
0.0
 10
415.341344
 20
623.148145
 30
0.0
 10
415.285223
 20
623.802907
 30
0.0
  0
LWPOLYLINE
  5
3e5
100
AcDbEntity
  8
newlayer
 62
7
100
AcDbPolyline
 90
2
 70
0
 10
411.721475
 20
629.613929
 30
0.0
 10
411.805657
 20
626.831188
 30
0.0
  0
SPLINE
  5
3e6
100
AcDbEntity
  8
newlayer
 62
7
100
AcDbSpline
 70
8
 71
3
 72
8
 73
4
 74
0
 40
0
 40
0
 40
0
 40
0
 40
1
 40
1
 40
1
 40
1
 10
417.389857
 20
604.364654
 30
0.0
 10
417.315026
 20
604.855726
 30
0.0
 10
417.221489
 20
605.605974
 30
0.0
 10
417.109246
 20
606.615400
 30
0.0
  0
SPLINE
  5
3e7
100
AcDbEntity
  8
newlayer
 62
7
100
AcDbSpline
 70
8
 71
3
 72
8
 73
4
 74
0
 40
0
 40
0
 40
0
 40
0
 40
1
 40
1
 40
1
 40
1
 10
417.109246
 20
606.615400
 30
0.0
 10
416.996997
 20
607.652107
 30
0.0
 10
416.800569
 20
608.661532
 30
0.0
 10
416.519961
 20
609.643676
 30
0.0
  0
SPLINE
  5
3e8
100
AcDbEntity
  8
newlayer
 62
7
100
AcDbSpline
 70
8
 71
3
 72
8
 73
4
 74
0
 40
0
 40
0
 40
0
 40
0
 40
1
 40
1
 40
1
 40
1
 10
416.519961
 20
609.643676
 30
0.0
 10
415.640708
 20
614.254294
 30
0.0
 10
414.649212
 20
617.746360
 30
0.0
 10
413.545473
 20
620.119873
 30
0.0
  0
SPLINE
  5
3e9
100
AcDbEntity
  8
newlayer
 62
7
100
AcDbSpline
 70
8
 71
3
 72
8
 73
4
 74
0
 40
0
 40
0
 40
0
 40
0
 40
1
 40
1
 40
1
 40
1
 10
413.545473
 20
620.119873
 30
0.0
 10
413.227447
 20
619.519674
 30
0.0
 10
412.900066
 20
618.933117
 30
0.0
 10
412.563331
 20
618.360200
 30
0.0
  0
SPLINE
  5
3ea
100
AcDbEntity
  8
newlayer
 62
7
100
AcDbSpline
 70
8
 71
3
 72
8
 73
4
 74
0
 40
0
 40
0
 40
0
 40
0
 40
1
 40
1
 40
1
 40
1
 10
412.563331
 20
618.360200
 30
0.0
 10
412.357549
 20
617.978255
 30
0.0
 10
412.226596
 20
617.541747
 30
0.0
 10
412.170475
 20
617.050675
 30
0.0
  0
SPLINE
  5
3eb
100
AcDbEntity
  8
newlayer
 62
7
100
AcDbSpline
 70
8
 71
3
 72
8
 73
4
 74
0
 40
0
 40
0
 40
0
 40
0
 40
1
 40
1
 40
1
 40
1
 10
412.170475
 20
617.050675
 30
0.0
 10
412.114353
 20
616.559603
 30
0.0
 10
411.974047
 20
615.973045
 30
0.0
 10
411.749555
 20
615.291001
 30
0.0
  0
SPLINE
  5
3ec
100
AcDbEntity
  8
newlayer
 62
7
100
AcDbSpline
 70
8
 71
3
 72
8
 73
4
 74
0
 40
0
 40
0
 40
0
 40
0
 40
1
 40
1
 40
1
 40
1
 10
411.749555
 20
615.291001
 30
0.0
 10
411.618602
 20
614.909057
 30
0.0
 10
411.487650
 20
614.540753
 30
0.0
 10
411.356698
 20
614.186089
 30
0.0
  0
LWPOLYLINE
  5
3ed
100
AcDbEntity
  8
newlayer
 62
7
100
AcDbPolyline
 90
1
 70
1
 10
415.285223
 20
623.802907
 30
0.0
  0
SPLINE
  5
3ee
100
AcDbEntity
  8
newlayer
 62
7
100
AcDbSpline
 70
8
 71
3
 72
8
 73
4
 74
0
 40
0
 40
0
 40
0
 40
0
 40
1
 40
1
 40
1
 40
1
 10
410.486802
 20
610.298438
 30
0.0
 10
410.468088
 20
610.189311
 30
0.0
 10
410.346490
 20
609.302653
 30
0.0
 10
410.122009
 20
607.638466
 30
0.0
  0
SPLINE
  5
3ef
100
AcDbEntity
  8
newlayer
 62
7
100
AcDbSpline
 70
8
 71
3
 72
8
 73
4
 74
0
 40
0
 40
0
 40
0
 40
0
 40
1
 40
1
 40
1
 40
1
 10
410.122009
 20
607.638466
 30
0.0
 10
409.916227
 20
606.001560
 30
0.0
 10
409.822690
 20
605.155826
 30
0.0
 10
409.841399
 20
605.101261
 30
0.0
  0
SPLINE
  5
3f0
100
AcDbEntity
  8
newlayer
 62
7
100
AcDbSpline
 70
8
 71
3
 72
8
 73
4
 74
0
 40
0
 40
0
 40
0
 40
0
 40
1
 40
1
 40
1
 40
1
 10
409.841399
 20
605.101261
 30
0.0
 10
409.897520
 20
604.773881
 30
0.0
 10
410.234255
 20
604.637472
 30
0.0
 10
410.851604
 20
604.692035
 30
0.0
  0
LWPOLYLINE
  5
3f1
100
AcDbEntity
  8
newlayer
 62
7
100
AcDbPolyline
 90
2
 70
0
 10
411.356698
 20
614.186089
 30
0.0
 10
410.486802
 20
610.298438
 30
0.0
  0
SPLINE
  5
3f2
100
AcDbEntity
  8
newlayer
 62
7
100
AcDbSpline
 70
8
 71
3
 72
8
 73
4
 74
0
 40
0
 40
0
 40
0
 40
0
 40
1
 40
1
 40
1
 40
1
 10
413.854147
 20
604.487422
 30
0.0
 10
413.891576
 20
604.487422
 30
0.0
 10
414.639874
 20
604.405577
 30
0.0
 10
416.099041
 20
604.241887
 30
0.0
  0
LWPOLYLINE
  5
3f3
100
AcDbEntity
  8
newlayer
 62
7
100
AcDbPolyline
 90
3
 70
0
 10
410.851604
 20
604.692035
 30
0.0
 10
412.956188
 20
604.364654
 30
0.0
 10
413.854147
 20
604.487422
 30
0.0
  0
LWPOLYLINE
  5
3f4
100
AcDbEntity
  8
newlayer
 62
7
100
AcDbPolyline
 90
2
 70
0
 10
416.099041
 20
604.241887
 30
0.0
 10
417.389857
 20
604.364654
 30
0.0
  0
SPLINE
  5
3f5
100
AcDbEntity
  8
newlayer
 62
7
100
AcDbSpline
 70
8
 71
3
 72
8
 73
4
 74
0
 40
0
 40
0
 40
0
 40
0
 40
1
 40
1
 40
1
 40
1
 10
431.226206
 20
600.354236
 30
0.0
 10
431.375867
 20
600.872585
 30
0.0
 10
431.450698
 20
601.390938
 30
0.0
 10
431.450698
 20
601.909295
 30
0.0
  0
SPLINE
  5
3f6
100
AcDbEntity
  8
newlayer
 62
7
100
AcDbSpline
 70
8
 71
3
 72
8
 73
4
 74
0
 40
0
 40
0
 40
0
 40
0
 40
1
 40
1
 40
1
 40
1
 10
431.450698
 20
601.909295
 30
0.0
 10
431.450698
 20
602.100268
 30
0.0
 10
431.431983
 20
602.495853
 30
0.0
 10
431.394554
 20
603.096052
 30
0.0
  0
SPLINE
  5
3f7
100
AcDbEntity
  8
newlayer
 62
7
100
AcDbSpline
 70
8
 71
3
 72
8
 73
4
 74
0
 40
0
 40
0
 40
0
 40
0
 40
1
 40
1
 40
1
 40
1
 10
431.394554
 20
603.096052
 30
0.0
 10
431.357125
 20
603.587124
 30
0.0
 10
431.347768
 20
604.037273
 30
0.0
 10
431.366482
 20
604.446499
 30
0.0
  0
SPLINE
  5
3f8
100
AcDbEntity
  8
newlayer
 62
7
100
AcDbSpline
 70
8
 71
3
 72
8
 73
4
 74
0
 40
0
 40
0
 40
0
 40
0
 40
1
 40
1
 40
1
 40
1
 10
431.366482
 20
604.446499
 30
0.0
 10
431.497435
 20
607.474776
 30
0.0
 10
431.534850
 20
609.534549
 30
0.0
 10
431.478728
 20
610.625819
 30
0.0
  0
SPLINE
  5
3f9
100
AcDbEntity
  8
newlayer
 62
7
100
AcDbSpline
 70
8
 71
3
 72
8
 73
4
 74
0
 40
0
 40
0
 40
0
 40
0
 40
1
 40
1
 40
1
 40
1
 10
431.478728
 20
610.625819
 30
0.0
 10
431.366480
 20
611.908062
 30
0.0
 10
431.226173
 20
613.531327
 30
0.0
 10
431.057808
 20
615.495614
 30
0.0
  0
LWPOLYLINE
  5
3fa
100
AcDbEntity
  8
newlayer
 62
7
100
AcDbPolyline
 90
5
 70
0
 10
425.782341
 20
616.600526
 30
0.0
 10
426.876728
 20
611.485195
 30
0.0
 10
428.083353
 20
608.866145
 30
0.0
 10
428.728765
 20
606.738167
 30
0.0
 10
431.226206
 20
600.354236
 30
0.0
  0
SPLINE
  5
3fb
100
AcDbEntity
  8
newlayer
 62
7
100
AcDbSpline
 70
8
 71
3
 72
8
 73
4
 74
0
 40
0
 40
0
 40
0
 40
0
 40
1
 40
1
 40
1
 40
1
 10
430.693015
 20
621.265708
 30
0.0
 10
430.318862
 20
622.793487
 30
0.0
 10
430.131785
 20
624.116652
 30
0.0
 10
430.131785
 20
625.235205
 30
0.0
  0
SPLINE
  5
3fc
100
AcDbEntity
  8
newlayer
 62
7
100
AcDbSpline
 70
8
 71
3
 72
8
 73
4
 74
0
 40
0
 40
0
 40
0
 40
0
 40
1
 40
1
 40
1
 40
1
 10
430.131785
 20
625.235205
 30
0.0
 10
430.131785
 20
626.926675
 30
0.0
 10
430.533997
 20
628.113431
 30
0.0
 10
431.338419
 20
628.795475
 30
0.0
  0
SPLINE
  5
3fd
100
AcDbEntity
  8
newlayer
 62
7
100
AcDbSpline
 70
8
 71
3
 72
8
 73
4
 74
0
 40
0
 40
0
 40
0
 40
0
 40
1
 40
1
 40
1
 40
1
 10
431.338419
 20
628.795475
 30
0.0
 10
430.945562
 20
627.649641
 30
0.0
 10
430.777195
 20
626.653856
 30
0.0
 10
430.833316
 20
625.808121
 30
0.0
  0
SPLINE
  5
3fe
100
AcDbEntity
  8
newlayer
 62
7
100
AcDbSpline
 70
8
 71
3
 72
8
 73
4
 74
0
 40
0
 40
0
 40
0
 40
0
 40
1
 40
1
 40
1
 40
1
 10
430.833316
 20
625.808121
 30
0.0
 10
430.870745
 20
625.235205
 30
0.0
 10
430.917515
 20
624.635006
 30
0.0
 10
430.973626
 20
624.007526
 30
0.0
  0
SPLINE
  5
3ff
100
AcDbEntity
  8
newlayer
 62
7
100
AcDbSpline
 70
8
 71
3
 72
8
 73
4
 74
0
 40
0
 40
0
 40
0
 40
0
 40
1
 40
1
 40
1
 40
1
 10
430.973626
 20
624.007526
 30
0.0
 10
431.048456
 20
623.380045
 30
0.0
 10
431.254236
 20
623.066305
 30
0.0
 10
431.590966
 20
623.066305
 30
0.0
  0
SPLINE
  5
400
100
AcDbEntity
  8
newlayer
 62
7
100
AcDbSpline
 70
8
 71
3
 72
8
 73
4
 74
0
 40
0
 40
0
 40
0
 40
0
 40
1
 40
1
 40
1
 40
1
 10
431.590966
 20
623.066305
 30
0.0
 10
432.058653
 20
623.066305
 30
0.0
 10
432.292497
 20
624.062089
 30
0.0
 10
432.292497
 20
626.053657
 30
0.0
  0
SPLINE
  5
401
100
AcDbEntity
  8
newlayer
 62
7
100
AcDbSpline
 70
8
 71
3
 72
8
 73
4
 74
0
 40
0
 40
0
 40
0
 40
0
 40
1
 40
1
 40
1
 40
1
 10
432.292497
 20
626.053657
 30
0.0
 10
432.292497
 20
626.572011
 30
0.0
 10
432.273782
 20
627.022161
 30
0.0
 10
432.236353
 20
627.404106
 30
0.0
  0
SPLINE
  5
402
100
AcDbEntity
  8
newlayer
 62
7
100
AcDbSpline
 70
8
 71
3
 72
8
 73
4
 74
0
 40
0
 40
0
 40
0
 40
0
 40
1
 40
1
 40
1
 40
1
 10
432.236353
 20
627.404106
 30
0.0
 10
432.610501
 20
627.458666
 30
0.0
 10
432.834990
 20
627.035798
 30
0.0
 10
432.909820
 20
626.135502
 30
0.0
  0
SPLINE
  5
403
100
AcDbEntity
  8
newlayer
 62
7
100
AcDbSpline
 70
8
 71
3
 72
8
 73
4
 74
0
 40
0
 40
0
 40
0
 40
0
 40
1
 40
1
 40
1
 40
1
 10
432.909820
 20
626.135502
 30
0.0
 10
432.947249
 20
625.780840
 30
0.0
 10
432.965964
 20
625.508023
 30
0.0
 10
432.965964
 20
625.317050
 30
0.0
  0
SPLINE
  5
404
100
AcDbEntity
  8
newlayer
 62
7
100
AcDbSpline
 70
8
 71
3
 72
8
 73
4
 74
0
 40
0
 40
0
 40
0
 40
0
 40
1
 40
1
 40
1
 40
1
 10
432.965964
 20
625.317050
 30
0.0
 10
432.965964
 20
625.071514
 30
0.0
 10
432.928549
 20
624.894183
 30
0.0
 10
432.853718
 20
624.785055
 30
0.0
  0
SPLINE
  5
405
100
AcDbEntity
  8
newlayer
 62
7
100
AcDbSpline
 70
8
 71
3
 72
8
 73
4
 74
0
 40
0
 40
0
 40
0
 40
0
 40
1
 40
1
 40
1
 40
1
 10
432.853718
 20
624.785055
 30
0.0
 10
432.797596
 20
624.675929
 30
0.0
 10
432.769536
 20
624.512238
 30
0.0
 10
432.769536
 20
624.293984
 30
0.0
  0
SPLINE
  5
406
100
AcDbEntity
  8
newlayer
 62
7
100
AcDbSpline
 70
8
 71
3
 72
8
 73
4
 74
0
 40
0
 40
0
 40
0
 40
0
 40
1
 40
1
 40
1
 40
1
 10
432.769536
 20
624.293984
 30
0.0
 10
432.788250
 20
624.103012
 30
0.0
 10
432.778893
 20
623.830194
 30
0.0
 10
432.741464
 20
623.475531
 30
0.0
  0
SPLINE
  5
407
100
AcDbEntity
  8
newlayer
 62
7
100
AcDbSpline
 70
8
 71
3
 72
8
 73
4
 74
0
 40
0
 40
0
 40
0
 40
0
 40
1
 40
1
 40
1
 40
1
 10
432.741464
 20
623.475531
 30
0.0
 10
432.722749
 20
623.148149
 30
0.0
 10
432.713392
 20
622.916254
 30
0.0
 10
432.713392
 20
622.779846
 30
0.0
  0
SPLINE
  5
408
100
AcDbEntity
  8
newlayer
 62
7
100
AcDbSpline
 70
8
 71
3
 72
8
 73
4
 74
0
 40
0
 40
0
 40
0
 40
0
 40
1
 40
1
 40
1
 40
1
 10
432.713392
 20
622.779846
 30
0.0
 10
432.713392
 20
622.425183
 30
0.0
 10
432.797574
 20
622.247851
 30
0.0
 10
432.965939
 20
622.247851
 30
0.0
  0
SPLINE
  5
409
100
AcDbEntity
  8
newlayer
 62
7
100
AcDbSpline
 70
8
 71
3
 72
8
 73
4
 74
0
 40
0
 40
0
 40
0
 40
0
 40
1
 40
1
 40
1
 40
1
 10
432.965939
 20
622.247851
 30
0.0
 10
433.153013
 20
622.247851
 30
0.0
 10
433.265259
 20
622.370619
 30
0.0
 10
433.302677
 20
622.616155
 30
0.0
  0
SPLINE
  5
40a
100
AcDbEntity
  8
newlayer
 62
7
100
AcDbSpline
 70
8
 71
3
 72
8
 73
4
 74
0
 40
0
 40
0
 40
0
 40
0
 40
1
 40
1
 40
1
 40
1
 10
433.302677
 20
622.616155
 30
0.0
 10
433.358799
 20
622.888973
 30
0.0
 10
433.405566
 20
623.161791
 30
0.0
 10
433.442978
 20
623.434608
 30
0.0
  0
SPLINE
  5
40b
100
AcDbEntity
  8
newlayer
 62
7
100
AcDbSpline
 70
8
 71
3
 72
8
 73
4
 74
0
 40
0
 40
0
 40
0
 40
0
 40
1
 40
1
 40
1
 40
1
 10
433.442978
 20
623.434608
 30
0.0
 10
433.461693
 20
623.543735
 30
0.0
 10
433.555232
 20
624.416751
 30
0.0
 10
433.723597
 20
626.053657
 30
0.0
  0
SPLINE
  5
40c
100
AcDbEntity
  8
newlayer
 62
7
100
AcDbSpline
 70
8
 71
3
 72
8
 73
4
 74
0
 40
0
 40
0
 40
0
 40
0
 40
1
 40
1
 40
1
 40
1
 10
433.723597
 20
626.053657
 30
0.0
 10
433.854549
 20
627.090364
 30
0.0
 10
433.779719
 20
628.372607
 30
0.0
 10
433.499105
 20
629.900386
 30
0.0
  0
SPLINE
  5
40d
100
AcDbEntity
  8
newlayer
 62
7
100
AcDbSpline
 70
8
 71
3
 72
8
 73
4
 74
0
 40
0
 40
0
 40
0
 40
0
 40
1
 40
1
 40
1
 40
1
 10
433.499105
 20
629.900386
 30
0.0
 10
434.322231
 20
629.136497
 30
0.0
 10
434.733794
 20
627.595078
 30
0.0
 10
434.733794
 20
625.276128
 30
0.0
  0
SPLINE
  5
40e
100
AcDbEntity
  8
newlayer
 62
7
100
AcDbSpline
 70
8
 71
3
 72
8
 73
4
 74
0
 40
0
 40
0
 40
0
 40
0
 40
1
 40
1
 40
1
 40
1
 10
434.733794
 20
625.276128
 30
0.0
 10
434.733794
 20
624.103011
 30
0.0
 10
434.630902
 20
622.807127
 30
0.0
 10
434.425120
 20
621.388475
 30
0.0
  0
SPLINE
  5
40f
100
AcDbEntity
  8
newlayer
 62
7
100
AcDbSpline
 70
8
 71
3
 72
8
 73
4
 74
0
 40
0
 40
0
 40
0
 40
0
 40
1
 40
1
 40
1
 40
1
 10
434.425120
 20
621.388475
 30
0.0
 10
434.312876
 20
620.815559
 30
0.0
 10
434.209988
 20
620.256283
 30
0.0
 10
434.116454
 20
619.710647
 30
0.0
  0
SPLINE
  5
410
100
AcDbEntity
  8
newlayer
 62
7
100
AcDbSpline
 70
8
 71
3
 72
8
 73
4
 74
0
 40
0
 40
0
 40
0
 40
0
 40
1
 40
1
 40
1
 40
1
 10
434.116454
 20
619.710647
 30
0.0
 10
433.779719
 20
615.372846
 30
0.0
 10
433.648766
 20
613.135741
 30
0.0
 10
433.723597
 20
612.999332
 30
0.0
  0
SPLINE
  5
411
100
AcDbEntity
  8
newlayer
 62
7
100
AcDbSpline
 70
8
 71
3
 72
8
 73
4
 74
0
 40
0
 40
0
 40
0
 40
0
 40
1
 40
1
 40
1
 40
1
 10
433.723597
 20
612.999332
 30
0.0
 10
433.630057
 20
611.826217
 30
0.0
 10
433.555227
 20
610.448488
 30
0.0
 10
433.499105
 20
608.866145
 30
0.0
  0
SPLINE
  5
412
100
AcDbEntity
  8
newlayer
 62
7
100
AcDbSpline
 70
8
 71
3
 72
8
 73
4
 74
0
 40
0
 40
0
 40
0
 40
0
 40
1
 40
1
 40
1
 40
1
 10
433.499105
 20
608.866145
 30
0.0
 10
433.442984
 20
607.283803
 30
0.0
 10
433.414923
 20
605.715102
 30
0.0
 10
433.414923
 20
604.160041
 30
0.0
  0
SPLINE
  5
413
100
AcDbEntity
  8
newlayer
 62
7
100
AcDbSpline
 70
8
 71
3
 72
8
 73
4
 74
0
 40
0
 40
0
 40
0
 40
0
 40
1
 40
1
 40
1
 40
1
 10
433.414923
 20
604.160041
 30
0.0
 10
433.433637
 20
604.160041
 30
0.0
 10
433.349452
 20
601.827449
 30
0.0
 10
433.162367
 20
597.162265
 30
0.0
  0
LWPOLYLINE
  5
414
100
AcDbEntity
  8
newlayer
 62
7
100
AcDbPolyline
 90
2
 70
0
 10
431.057808
 20
615.495614
 30
0.0
 10
430.693015
 20
621.265708
 30
0.0
  0
SPLINE
  5
415
100
AcDbEntity
  8
newlayer
 62
7
100
AcDbSpline
 70
8
 71
3
 72
8
 73
4
 74
0
 40
0
 40
0
 40
0
 40
0
 40
1
 40
1
 40
1
 40
1
 10
430.608800
 20
597.162265
 30
0.0
 10
430.590085
 20
597.653338
 30
0.0
 10
430.449781
 20
598.362663
 30
0.0
 10
430.187888
 20
599.290241
 30
0.0
  0
SPLINE
  5
416
100
AcDbEntity
  8
newlayer
 62
7
100
AcDbSpline
 70
8
 71
3
 72
8
 73
4
 74
0
 40
0
 40
0
 40
0
 40
0
 40
1
 40
1
 40
1
 40
1
 10
430.187888
 20
599.290241
 30
0.0
 10
430.169173
 20
599.344826
 30
0.0
 10
429.916623
 20
600.149637
 30
0.0
 10
429.430238
 20
601.704677
 30
0.0
  0
SPLINE
  5
417
100
AcDbEntity
  8
newlayer
 62
7
100
AcDbSpline
 70
8
 71
3
 72
8
 73
4
 74
0
 40
0
 40
0
 40
0
 40
0
 40
1
 40
1
 40
1
 40
1
 10
429.430238
 20
601.704677
 30
0.0
 10
428.943842
 20
603.259741
 30
0.0
 10
428.672583
 20
604.037273
 30
0.0
 10
428.616461
 20
604.037273
 30
0.0
  0
SPLINE
  5
418
100
AcDbEntity
  8
newlayer
 62
7
100
AcDbSpline
 70
8
 71
3
 72
8
 73
4
 74
0
 40
0
 40
0
 40
0
 40
0
 40
1
 40
1
 40
1
 40
1
 10
428.616461
 20
604.037273
 30
0.0
 10
428.560340
 20
604.037273
 30
0.0
 10
428.092652
 20
605.183107
 30
0.0
 10
427.213400
 20
607.474776
 30
0.0
  0
SPLINE
  5
419
100
AcDbEntity
  8
newlayer
 62
7
100
AcDbSpline
 70
8
 71
3
 72
8
 73
4
 74
0
 40
0
 40
0
 40
0
 40
0
 40
1
 40
1
 40
1
 40
1
 10
427.213400
 20
607.474776
 30
0.0
 10
426.334152
 20
609.793726
 30
0.0
 10
425.819698
 20
611.226018
 30
0.0
 10
425.670037
 20
611.771654
 30
0.0
  0
SPLINE
  5
41a
100
AcDbEntity
  8
newlayer
 62
7
100
AcDbSpline
 70
8
 71
3
 72
8
 73
4
 74
0
 40
0
 40
0
 40
0
 40
0
 40
1
 40
1
 40
1
 40
1
 10
425.670037
 20
611.771654
 30
0.0
 10
424.940445
 20
613.708659
 30
0.0
 10
424.323099
 20
615.959404
 30
0.0
 10
423.818000
 20
618.523890
 30
0.0
  0
SPLINE
  5
41b
100
AcDbEntity
  8
newlayer
 62
7
100
AcDbSpline
 70
8
 71
3
 72
8
 73
4
 74
0
 40
0
 40
0
 40
0
 40
0
 40
1
 40
1
 40
1
 40
1
 10
423.818000
 20
618.523890
 30
0.0
 10
423.630926
 20
615.632023
 30
0.0
 10
423.574804
 20
614.186089
 30
0.0
 10
423.649635
 20
614.186089
 30
0.0
  0
SPLINE
  5
41c
100
AcDbEntity
  8
newlayer
 62
7
100
AcDbSpline
 70
8
 71
3
 72
8
 73
4
 74
0
 40
0
 40
0
 40
0
 40
0
 40
1
 40
1
 40
1
 40
1
 10
423.649635
 20
614.186089
 30
0.0
 10
423.425143
 20
610.639460
 30
0.0
 10
423.322252
 20
608.825223
 30
0.0
 10
423.340961
 20
608.743378
 30
0.0
  0
SPLINE
  5
41d
100
AcDbEntity
  8
newlayer
 62
7
100
AcDbSpline
 70
8
 71
3
 72
8
 73
4
 74
0
 40
0
 40
0
 40
0
 40
0
 40
1
 40
1
 40
1
 40
1
 10
423.340961
 20
608.743378
 30
0.0
 10
423.210009
 20
607.733952
 30
0.0
 10
423.107117
 20
606.288019
 30
0.0
 10
423.032287
 20
604.405577
 30
0.0
  0
SPLINE
  5
41e
100
AcDbEntity
  8
newlayer
 62
7
100
AcDbSpline
 70
8
 71
3
 72
8
 73
4
 74
0
 40
0
 40
0
 40
0
 40
0
 40
1
 40
1
 40
1
 40
1
 10
423.032287
 20
604.405577
 30
0.0
 10
423.107117
 20
602.441288
 30
0.0
 10
423.079056
 20
600.026851
 30
0.0
 10
422.948104
 20
597.162265
 30
0.0
  0
LWPOLYLINE
  5
41f
100
AcDbEntity
  8
newlayer
 62
7
100
AcDbPolyline
 90
2
 70
0
 10
433.162367
 20
597.162265
 30
0.0
 10
430.608800
 20
597.162265
 30
0.0
  0
SPLINE
  5
420
100
AcDbEntity
  8
newlayer
 62
7
100
AcDbSpline
 70
8
 71
3
 72
8
 73
4
 74
0
 40
0
 40
0
 40
0
 40
0
 40
1
 40
1
 40
1
 40
1
 10
421.011885
 20
597.162265
 30
0.0
 10
421.030599
 20
597.980722
 30
0.0
 10
421.030599
 20
598.417231
 30
0.0
 10
421.011885
 20
598.471792
 30
0.0
  0
SPLINE
  5
421
100
AcDbEntity
  8
newlayer
 62
7
100
AcDbSpline
 70
8
 71
3
 72
8
 73
4
 74
0
 40
0
 40
0
 40
0
 40
0
 40
1
 40
1
 40
1
 40
1
 10
421.011885
 20
598.471792
 30
0.0
 10
420.843514
 20
601.636477
 30
0.0
 10
420.834157
 20
603.218820
 30
0.0
 10
420.983813
 20
603.218820
 30
0.0
  0
SPLINE
  5
422
100
AcDbEntity
  8
newlayer
 62
7
100
AcDbSpline
 70
8
 71
3
 72
8
 73
4
 74
0
 40
0
 40
0
 40
0
 40
0
 40
1
 40
1
 40
1
 40
1
 10
420.983813
 20
603.218820
 30
0.0
 10
421.021242
 20
603.218820
 30
0.0
 10
421.049303
 20
604.064554
 30
0.0
 10
421.067995
 20
605.756024
 30
0.0
  0
SPLINE
  5
423
100
AcDbEntity
  8
newlayer
 62
7
100
AcDbSpline
 70
8
 71
3
 72
8
 73
4
 74
0
 40
0
 40
0
 40
0
 40
0
 40
1
 40
1
 40
1
 40
1
 10
421.067995
 20
605.756024
 30
0.0
 10
421.086710
 20
607.474776
 30
0.0
 10
421.096067
 20
608.361433
 30
0.0
 10
421.096067
 20
608.415996
 30
0.0
  0
SPLINE
  5
424
100
AcDbEntity
  8
newlayer
 62
7
100
AcDbSpline
 70
8
 71
3
 72
8
 73
4
 74
0
 40
0
 40
0
 40
0
 40
0
 40
1
 40
1
 40
1
 40
1
 10
421.096067
 20
608.415996
 30
0.0
 10
421.039946
 20
610.380283
 30
0.0
 10
421.039946
 20
612.453697
 30
0.0
 10
421.096067
 20
614.636239
 30
0.0
  0
SPLINE
  5
425
100
AcDbEntity
  8
newlayer
 62
7
100
AcDbSpline
 70
8
 71
3
 72
8
 73
4
 74
0
 40
0
 40
0
 40
0
 40
0
 40
1
 40
1
 40
1
 40
1
 10
421.096067
 20
614.636239
 30
0.0
 10
421.039946
 20
615.045466
 30
0.0
 10
421.030588
 20
615.932123
 30
0.0
 10
421.067995
 20
617.296211
 30
0.0
  0
SPLINE
  5
426
100
AcDbEntity
  8
newlayer
 62
7
100
AcDbSpline
 70
8
 71
3
 72
8
 73
4
 74
0
 40
0
 40
0
 40
0
 40
0
 40
1
 40
1
 40
1
 40
1
 10
421.067995
 20
617.296211
 30
0.0
 10
421.105424
 20
618.442045
 30
0.0
 10
421.049303
 20
619.205935
 30
0.0
 10
420.899631
 20
619.587880
 30
0.0
  0
SPLINE
  5
427
100
AcDbEntity
  8
newlayer
 62
7
100
AcDbSpline
 70
8
 71
3
 72
8
 73
4
 74
0
 40
0
 40
0
 40
0
 40
0
 40
1
 40
1
 40
1
 40
1
 10
420.899631
 20
619.587880
 30
0.0
 10
420.375822
 20
621.852266
 30
0.0
 10
420.113917
 20
623.748348
 30
0.0
 10
420.113917
 20
625.276128
 30
0.0
  0
SPLINE
  5
428
100
AcDbEntity
  8
newlayer
 62
7
100
AcDbSpline
 70
8
 71
3
 72
8
 73
4
 74
0
 40
0
 40
0
 40
0
 40
0
 40
1
 40
1
 40
1
 40
1
 10
420.113917
 20
625.276128
 30
0.0
 10
420.113917
 20
626.858470
 30
0.0
 10
420.366467
 20
627.881536
 30
0.0
 10
420.871567
 20
628.345326
 30
0.0
  0
SPLINE
  5
429
100
AcDbEntity
  8
newlayer
 62
7
100
AcDbSpline
 70
8
 71
3
 72
8
 73
4
 74
0
 40
0
 40
0
 40
0
 40
0
 40
1
 40
1
 40
1
 40
1
 10
420.871567
 20
628.345326
 30
0.0
 10
420.778027
 20
627.908817
 30
0.0
 10
420.731257
 20
627.458668
 30
0.0
 10
420.731257
 20
626.994878
 30
0.0
  0
SPLINE
  5
42a
100
AcDbEntity
  8
newlayer
 62
7
100
AcDbSpline
 70
8
 71
3
 72
8
 73
4
 74
0
 40
0
 40
0
 40
0
 40
0
 40
1
 40
1
 40
1
 40
1
 10
420.731257
 20
626.994878
 30
0.0
 10
420.731257
 20
626.531088
 30
0.0
 10
420.843503
 20
625.698995
 30
0.0
 10
421.067995
 20
624.498597
 30
0.0
  0
SPLINE
  5
42b
100
AcDbEntity
  8
newlayer
 62
7
100
AcDbSpline
 70
8
 71
3
 72
8
 73
4
 74
0
 40
0
 40
0
 40
0
 40
0
 40
1
 40
1
 40
1
 40
1
 10
421.067995
 20
624.498597
 30
0.0
 10
421.423439
 20
622.534310
 30
0.0
 10
421.881772
 20
621.634012
 30
0.0
 10
422.442993
 20
621.797703
 30
0.0
  0
SPLINE
  5
42c
100
AcDbEntity
  8
newlayer
 62
7
100
AcDbSpline
 70
8
 71
3
 72
8
 73
4
 74
0
 40
0
 40
0
 40
0
 40
0
 40
1
 40
1
 40
1
 40
1
 10
422.442993
 20
621.797703
 30
0.0
 10
422.779728
 20
621.879548
 30
0.0
 10
422.976157
 20
622.125083
 30
0.0
 10
423.032278
 20
622.534310
 30
0.0
  0
SPLINE
  5
42d
100
AcDbEntity
  8
newlayer
 62
7
100
AcDbSpline
 70
8
 71
3
 72
8
 73
4
 74
0
 40
0
 40
0
 40
0
 40
0
 40
1
 40
1
 40
1
 40
1
 10
423.032278
 20
622.534310
 30
0.0
 10
423.050993
 20
622.643437
 30
0.0
 10
423.060350
 20
623.025381
 30
0.0
 10
423.060350
 20
623.680144
 30
0.0
  0
SPLINE
  5
42e
100
AcDbEntity
  8
newlayer
 62
7
100
AcDbSpline
 70
8
 71
3
 72
8
 73
4
 74
0
 40
0
 40
0
 40
0
 40
0
 40
1
 40
1
 40
1
 40
1
 10
423.060350
 20
623.680144
 30
0.0
 10
423.060350
 20
624.280343
 30
0.0
 10
423.041636
 20
624.907823
 30
0.0
 10
423.004206
 20
625.562586
 30
0.0
  0
SPLINE
  5
42f
100
AcDbEntity
  8
newlayer
 62
7
100
AcDbSpline
 70
8
 71
3
 72
8
 73
4
 74
0
 40
0
 40
0
 40
0
 40
0
 40
1
 40
1
 40
1
 40
1
 10
423.004206
 20
625.562586
 30
0.0
 10
422.966777
 20
626.217349
 30
0.0
 10
422.667458
 20
627.090365
 30
0.0
 10
422.106247
 20
628.181635
 30
0.0
  0
SPLINE
  5
430
100
AcDbEntity
  8
newlayer
 62
7
100
AcDbSpline
 70
8
 71
3
 72
8
 73
4
 74
0
 40
0
 40
0
 40
0
 40
0
 40
1
 40
1
 40
1
 40
1
 10
422.106247
 20
628.181635
 30
0.0
 10
422.274618
 20
628.263480
 30
0.0
 10
422.424279
 20
628.304403
 30
0.0
 10
422.555231
 20
628.304403
 30
0.0
  0
SPLINE
  5
431
100
AcDbEntity
  8
newlayer
 62
7
100
AcDbSpline
 70
8
 71
3
 72
8
 73
4
 74
0
 40
0
 40
0
 40
0
 40
0
 40
1
 40
1
 40
1
 40
1
 10
422.555231
 20
628.304403
 30
0.0
 10
423.041622
 20
628.304403
 30
0.0
 10
423.378354
 20
627.799690
 30
0.0
 10
423.565428
 20
626.790266
 30
0.0
  0
SPLINE
  5
432
100
AcDbEntity
  8
newlayer
 62
7
100
AcDbSpline
 70
8
 71
3
 72
8
 73
4
 74
0
 40
0
 40
0
 40
0
 40
0
 40
1
 40
1
 40
1
 40
1
 10
423.565428
 20
626.790266
 30
0.0
 10
423.752507
 20
625.808122
 30
0.0
 10
423.892814
 20
625.317050
 30
0.0
 10
423.986348
 20
625.317050
 30
0.0
  0
SPLINE
  5
433
100
AcDbEntity
  8
newlayer
 62
7
100
AcDbSpline
 70
8
 71
3
 72
8
 73
4
 74
0
 40
0
 40
0
 40
0
 40
0
 40
1
 40
1
 40
1
 40
1
 10
423.986348
 20
625.317050
 30
0.0
 10
424.248252
 20
625.317050
 30
0.0
 10
424.379205
 20
625.658072
 30
0.0
 10
424.379205
 20
626.340116
 30
0.0
  0
SPLINE
  5
434
100
AcDbEntity
  8
newlayer
 62
7
100
AcDbSpline
 70
8
 71
3
 72
8
 73
4
 74
0
 40
0
 40
0
 40
0
 40
0
 40
1
 40
1
 40
1
 40
1
 10
424.379205
 20
626.340116
 30
0.0
 10
424.379205
 20
627.349541
 30
0.0
 10
424.201485
 20
628.372608
 30
0.0
 10
423.846047
 20
629.409315
 30
0.0
  0
SPLINE
  5
435
100
AcDbEntity
  8
newlayer
 62
7
100
AcDbSpline
 70
8
 71
3
 72
8
 73
4
 74
0
 40
0
 40
0
 40
0
 40
0
 40
1
 40
1
 40
1
 40
1
 10
423.846047
 20
629.409315
 30
0.0
 10
424.089242
 20
629.463875
 30
0.0
 10
424.332437
 20
629.204698
 30
0.0
 10
424.575633
 20
628.631784
 30
0.0
  0
SPLINE
  5
436
100
AcDbEntity
  8
newlayer
 62
7
100
AcDbSpline
 70
8
 71
3
 72
8
 73
4
 74
0
 40
0
 40
0
 40
0
 40
0
 40
1
 40
1
 40
1
 40
1
 10
424.575633
 20
628.631784
 30
0.0
 10
424.837537
 20
628.086149
 30
0.0
 10
424.968489
 20
627.595078
 30
0.0
 10
424.968489
 20
627.158569
 30
0.0
  0
SPLINE
  5
437
100
AcDbEntity
  8
newlayer
 62
7
100
AcDbSpline
 70
8
 71
3
 72
8
 73
4
 74
0
 40
0
 40
0
 40
0
 40
0
 40
1
 40
1
 40
1
 40
1
 10
424.968489
 20
627.158569
 30
0.0
 10
425.024611
 20
625.276128
 30
0.0
 10
425.136857
 20
622.984459
 30
0.0
 10
425.305227
 20
620.283565
 30
0.0
  0
SPLINE
  5
438
100
AcDbEntity
  8
newlayer
 62
7
100
AcDbSpline
 70
8
 71
3
 72
8
 73
4
 74
0
 40
0
 40
0
 40
0
 40
0
 40
1
 40
1
 40
1
 40
1
 10
425.305227
 20
620.283565
 30
0.0
 10
425.398761
 20
619.192294
 30
0.0
 10
425.557774
 20
617.964615
 30
0.0
 10
425.782266
 20
616.600526
 30
0.0
  0
LWPOLYLINE
  5
439
100
AcDbEntity
  8
newlayer
 62
7
100
AcDbPolyline
 90
2
 70
0
 10
422.948104
 20
597.162265
 30
0.0
 10
421.011885
 20
597.162265
 30
0.0
  0
SPLINE
  5
43a
100
AcDbEntity
  8
newlayer
 62
7
100
AcDbSpline
 70
8
 71
3
 72
8
 73
4
 74
0
 40
0
 40
0
 40
0
 40
0
 40
1
 40
1
 40
1
 40
1
 10
438.454587
 20
626.176426
 30
0.0
 10
438.529417
 20
626.394680
 30
0.0
 10
438.613603
 20
626.626575
 30
0.0
 10
438.707142
 20
626.872111
 30
0.0
  0
SPLINE
  5
43b
100
AcDbEntity
  8
newlayer
 62
7
100
AcDbSpline
 70
8
 71
3
 72
8
 73
4
 74
0
 40
0
 40
0
 40
0
 40
0
 40
1
 40
1
 40
1
 40
1
 10
438.707142
 20
626.872111
 30
0.0
 10
438.800676
 20
627.117647
 30
0.0
 10
438.931629
 20
627.267696
 30
0.0
 10
439.099999
 20
627.322259
 30
0.0
  0
SPLINE
  5
43c
100
AcDbEntity
  8
newlayer
 62
7
100
AcDbSpline
 70
8
 71
3
 72
8
 73
4
 74
0
 40
0
 40
0
 40
0
 40
0
 40
1
 40
1
 40
1
 40
1
 10
439.099999
 20
627.322259
 30
0.0
 10
439.006459
 20
626.803906
 30
0.0
 10
438.959689
 20
626.462884
 30
0.0
 10
438.959689
 20
626.299194
 30
0.0
  0
SPLINE
  5
43d
100
AcDbEntity
  8
newlayer
 62
7
100
AcDbSpline
 70
8
 71
3
 72
8
 73
4
 74
0
 40
0
 40
0
 40
0
 40
0
 40
1
 40
1
 40
1
 40
1
 10
438.959689
 20
626.299194
 30
0.0
 10
438.959689
 20
625.780840
 30
0.0
 10
439.174827
 20
625.576226
 30
0.0
 10
439.605101
 20
625.685354
 30
0.0
  0
SPLINE
  5
43e
100
AcDbEntity
  8
newlayer
 62
7
100
AcDbSpline
 70
8
 71
3
 72
8
 73
4
 74
0
 40
0
 40
0
 40
0
 40
0
 40
1
 40
1
 40
1
 40
1
 10
439.605101
 20
625.685354
 30
0.0
 10
439.792175
 20
625.903608
 30
0.0
 10
439.885712
 20
626.135503
 30
0.0
 10
439.885712
 20
626.381038
 30
0.0
  0
SPLINE
  5
43f
100
AcDbEntity
  8
newlayer
 62
7
100
AcDbSpline
 70
8
 71
3
 72
8
 73
4
 74
0
 40
0
 40
0
 40
0
 40
0
 40
1
 40
1
 40
1
 40
1
 10
439.885712
 20
626.381038
 30
0.0
 10
439.885712
 20
626.572011
 30
0.0
 10
439.810881
 20
626.953956
 30
0.0
 10
439.661220
 20
627.526873
 30
0.0
  0
SPLINE
  5
440
100
AcDbEntity
  8
newlayer
 62
7
100
AcDbSpline
 70
8
 71
3
 72
8
 73
4
 74
0
 40
0
 40
0
 40
0
 40
0
 40
1
 40
1
 40
1
 40
1
 10
439.661220
 20
627.526873
 30
0.0
 10
440.278569
 20
627.254056
 30
0.0
 10
440.708841
 20
626.599293
 30
0.0
 10
440.952036
 20
625.562586
 30
0.0
  0
SPLINE
  5
441
100
AcDbEntity
  8
newlayer
 62
7
100
AcDbSpline
 70
8
 71
3
 72
8
 73
4
 74
0
 40
0
 40
0
 40
0
 40
0
 40
1
 40
1
 40
1
 40
1
 10
440.952036
 20
625.562586
 30
0.0
 10
442.018357
 20
625.644431
 30
0.0
 10
442.757300
 20
625.849045
 30
0.0
 10
443.168866
 20
626.176426
 30
0.0
  0
SPLINE
  5
442
100
AcDbEntity
  8
newlayer
 62
7
100
AcDbSpline
 70
8
 71
3
 72
8
 73
4
 74
0
 40
0
 40
0
 40
0
 40
0
 40
1
 40
1
 40
1
 40
1
 10
443.168866
 20
626.176426
 30
0.0
 10
443.412061
 20
626.367398
 30
0.0
 10
443.571074
 20
626.708420
 30
0.0
 10
443.645905
 20
627.199492
 30
0.0
  0
SPLINE
  5
443
100
AcDbEntity
  8
newlayer
 62
7
100
AcDbSpline
 70
8
 71
3
 72
8
 73
4
 74
0
 40
0
 40
0
 40
0
 40
0
 40
1
 40
1
 40
1
 40
1
 10
443.645905
 20
627.199492
 30
0.0
 10
443.720736
 20
627.717845
 30
0.0
 10
443.730093
 20
628.099790
 30
0.0
 10
443.673977
 20
628.345326
 30
0.0
  0
SPLINE
  5
444
100
AcDbEntity
  8
newlayer
 62
7
100
AcDbSpline
 70
8
 71
3
 72
8
 73
4
 74
0
 40
0
 40
0
 40
0
 40
0
 40
1
 40
1
 40
1
 40
1
 10
443.673977
 20
628.345326
 30
0.0
 10
443.861051
 20
628.372611
 30
0.0
 10
444.020064
 20
627.881539
 30
0.0
 10
444.151016
 20
626.872111
 30
0.0
  0
SPLINE
  5
445
100
AcDbEntity
  8
newlayer
 62
7
100
AcDbSpline
 70
8
 71
3
 72
8
 73
4
 74
0
 40
0
 40
0
 40
0
 40
0
 40
1
 40
1
 40
1
 40
1
 10
444.151016
 20
626.872111
 30
0.0
 10
444.281968
 20
625.889967
 30
0.0
 10
444.384859
 20
625.398895
 30
0.0
 10
444.459690
 20
625.398895
 30
0.0
  0
SPLINE
  5
446
100
AcDbEntity
  8
newlayer
 62
7
100
AcDbSpline
 70
8
 71
3
 72
8
 73
4
 74
0
 40
0
 40
0
 40
0
 40
0
 40
1
 40
1
 40
1
 40
1
 10
444.459690
 20
625.398895
 30
0.0
 10
444.571933
 20
625.426179
 30
0.0
 10
444.674825
 20
625.767201
 30
0.0
 10
444.768364
 20
626.421961
 30
0.0
  0
SPLINE
  5
447
100
AcDbEntity
  8
newlayer
 62
7
100
AcDbSpline
 70
8
 71
3
 72
8
 73
4
 74
0
 40
0
 40
0
 40
0
 40
0
 40
1
 40
1
 40
1
 40
1
 10
444.768364
 20
626.421961
 30
0.0
 10
444.861898
 20
627.104006
 30
0.0
 10
445.002202
 20
627.445028
 30
0.0
 10
445.189276
 20
627.445028
 30
0.0
  0
SPLINE
  5
448
100
AcDbEntity
  8
newlayer
 62
7
100
AcDbSpline
 70
8
 71
3
 72
8
 73
4
 74
0
 40
0
 40
0
 40
0
 40
0
 40
1
 40
1
 40
1
 40
1
 10
445.189276
 20
627.445028
 30
0.0
 10
445.170562
 20
627.281337
 30
0.0
 10
445.161204
 20
627.117647
 30
0.0
 10
445.161204
 20
626.953956
 30
0.0
  0
SPLINE
  5
449
100
AcDbEntity
  8
newlayer
 62
7
100
AcDbSpline
 70
8
 71
3
 72
8
 73
4
 74
0
 40
0
 40
0
 40
0
 40
0
 40
1
 40
1
 40
1
 40
1
 10
445.161204
 20
626.953956
 30
0.0
 10
445.161204
 20
625.971812
 30
0.0
 10
445.488585
 20
625.398895
 30
0.0
 10
446.143346
 20
625.235205
 30
0.0
  0
SPLINE
  5
44a
100
AcDbEntity
  8
newlayer
 62
7
100
AcDbSpline
 70
8
 71
3
 72
8
 73
4
 74
0
 40
0
 40
0
 40
0
 40
0
 40
1
 40
1
 40
1
 40
1
 10
446.143346
 20
625.235205
 30
0.0
 10
446.423954
 20
625.317050
 30
0.0
 10
446.564258
 20
625.617149
 30
0.0
 10
446.564258
 20
626.135502
 30
0.0
  0
SPLINE
  5
44b
100
AcDbEntity
  8
newlayer
 62
7
100
AcDbSpline
 70
8
 71
3
 72
8
 73
4
 74
0
 40
0
 40
0
 40
0
 40
0
 40
1
 40
1
 40
1
 40
1
 10
446.564258
 20
626.135502
 30
0.0
 10
446.564258
 20
626.544729
 30
0.0
 10
446.489430
 20
626.940315
 30
0.0
 10
446.339774
 20
627.322259
 30
0.0
  0
SPLINE
  5
44c
100
AcDbEntity
  8
newlayer
 62
7
100
AcDbSpline
 70
8
 71
3
 72
8
 73
4
 74
0
 40
0
 40
0
 40
0
 40
0
 40
1
 40
1
 40
1
 40
1
 10
446.339774
 20
627.322259
 30
0.0
 10
446.601679
 20
627.404105
 30
0.0
 10
446.760692
 20
627.158569
 30
0.0
 10
446.816813
 20
626.585652
 30
0.0
  0
SPLINE
  5
44d
100
AcDbEntity
  8
newlayer
 62
7
100
AcDbSpline
 70
8
 71
3
 72
8
 73
4
 74
0
 40
0
 40
0
 40
0
 40
0
 40
1
 40
1
 40
1
 40
1
 10
446.816813
 20
626.585652
 30
0.0
 10
446.872935
 20
626.012735
 30
0.0
 10
446.966472
 20
625.753558
 30
0.0
 10
447.097424
 20
625.808121
 30
0.0
  0
SPLINE
  5
44e
100
AcDbEntity
  8
newlayer
 62
7
100
AcDbSpline
 70
8
 71
3
 72
8
 73
4
 74
0
 40
0
 40
0
 40
0
 40
0
 40
1
 40
1
 40
1
 40
1
 10
447.097424
 20
625.808121
 30
0.0
 10
447.265789
 20
625.889967
 30
0.0
 10
447.349971
 20
626.149144
 30
0.0
 10
447.349971
 20
626.585652
 30
0.0
  0
SPLINE
  5
44f
100
AcDbEntity
  8
newlayer
 62
7
100
AcDbSpline
 70
8
 71
3
 72
8
 73
4
 74
0
 40
0
 40
0
 40
0
 40
0
 40
1
 40
1
 40
1
 40
1
 10
447.349971
 20
626.585652
 30
0.0
 10
447.349971
 20
626.694779
 30
0.0
 10
447.340614
 20
626.899392
 30
0.0
 10
447.321899
 20
627.199492
 30
0.0
  0
SPLINE
  5
450
100
AcDbEntity
  8
newlayer
 62
7
100
AcDbSpline
 70
8
 71
3
 72
8
 73
4
 74
0
 40
0
 40
0
 40
0
 40
0
 40
1
 40
1
 40
1
 40
1
 10
447.321899
 20
627.199492
 30
0.0
 10
447.303184
 20
627.526873
 30
0.0
 10
447.293827
 20
627.772408
 30
0.0
 10
447.293827
 20
627.936099
 30
0.0
  0
SPLINE
  5
451
100
AcDbEntity
  8
newlayer
 62
7
100
AcDbSpline
 70
8
 71
3
 72
8
 73
4
 74
0
 40
0
 40
0
 40
0
 40
0
 40
1
 40
1
 40
1
 40
1
 10
447.293827
 20
627.936099
 30
0.0
 10
447.293827
 20
628.618143
 30
0.0
 10
447.434134
 20
629.081933
 30
0.0
 10
447.714747
 20
629.327470
 30
0.0
  0
SPLINE
  5
452
100
AcDbEntity
  8
newlayer
 62
7
100
AcDbSpline
 70
8
 71
3
 72
8
 73
4
 74
0
 40
0
 40
0
 40
0
 40
0
 40
1
 40
1
 40
1
 40
1
 10
447.714747
 20
629.327470
 30
0.0
 10
447.752176
 20
627.963381
 30
0.0
 10
447.817653
 20
627.063083
 30
0.0
 10
447.911176
 20
626.626575
 30
0.0
  0
SPLINE
  5
453
100
AcDbEntity
  8
newlayer
 62
7
100
AcDbSpline
 70
8
 71
3
 72
8
 73
4
 74
0
 40
0
 40
0
 40
0
 40
0
 40
1
 40
1
 40
1
 40
1
 10
447.911176
 20
626.626575
 30
0.0
 10
448.004710
 20
626.190066
 30
0.0
 10
448.229199
 20
625.985453
 30
0.0
 10
448.584643
 20
626.012735
 30
0.0
  0
SPLINE
  5
454
100
AcDbEntity
  8
newlayer
 62
7
100
AcDbSpline
 70
8
 71
3
 72
8
 73
4
 74
0
 40
0
 40
0
 40
0
 40
0
 40
1
 40
1
 40
1
 40
1
 10
448.584643
 20
626.012735
 30
0.0
 10
449.108452
 20
625.958175
 30
0.0
 10
449.370356
 20
627.131291
 30
0.0
 10
449.370356
 20
629.532082
 30
0.0
  0
SPLINE
  5
455
100
AcDbEntity
  8
newlayer
 62
7
100
AcDbSpline
 70
8
 71
3
 72
8
 73
4
 74
0
 40
0
 40
0
 40
0
 40
0
 40
1
 40
1
 40
1
 40
1
 10
449.370356
 20
629.532082
 30
0.0
 10
449.744504
 20
629.013729
 30
0.0
 10
449.931577
 20
628.399889
 30
0.0
 10
449.931577
 20
627.690563
 30
0.0
  0
SPLINE
  5
456
100
AcDbEntity
  8
newlayer
 62
7
100
AcDbSpline
 70
8
 71
3
 72
8
 73
4
 74
0
 40
0
 40
0
 40
0
 40
0
 40
1
 40
1
 40
1
 40
1
 10
449.931577
 20
627.690563
 30
0.0
 10
449.931577
 20
627.335901
 30
0.0
 10
449.866101
 20
626.708420
 30
0.0
 10
449.735149
 20
625.808121
 30
0.0
  0
SPLINE
  5
457
100
AcDbEntity
  8
newlayer
 62
7
100
AcDbSpline
 70
8
 71
3
 72
8
 73
4
 74
0
 40
0
 40
0
 40
0
 40
0
 40
1
 40
1
 40
1
 40
1
 10
449.735149
 20
625.808121
 30
0.0
 10
449.604197
 20
624.935105
 30
0.0
 10
449.538721
 20
624.225779
 30
0.0
 10
449.538721
 20
623.680144
 30
0.0
  0
SPLINE
  5
458
100
AcDbEntity
  8
newlayer
 62
7
100
AcDbSpline
 70
8
 71
3
 72
8
 73
4
 74
0
 40
0
 40
0
 40
0
 40
0
 40
1
 40
1
 40
1
 40
1
 10
449.538721
 20
623.680144
 30
0.0
 10
447.312533
 20
623.789271
 30
0.0
 10
446.096548
 20
623.802913
 30
0.0
 10
445.890766
 20
623.721071
 30
0.0
  0
LWPOLYLINE
  5
459
100
AcDbEntity
  8
newlayer
 62
7
100
AcDbPolyline
 90
1
 70
1
 10
425.782266
 20
616.600526
 30
0.0
  0
SPLINE
  5
45a
100
AcDbEntity
  8
newlayer
 62
7
100
AcDbSpline
 70
8
 71
3
 72
8
 73
4
 74
0
 40
0
 40
0
 40
0
 40
0
 40
1
 40
1
 40
1
 40
1
 10
441.148431
 20
597.162256
 30
0.0
 10
441.129717
 20
597.762457
 30
0.0
 10
441.101656
 20
599.153829
 30
0.0
 10
441.064249
 20
601.336369
 30
0.0
  0
LWPOLYLINE
  5
45b
100
AcDbEntity
  8
newlayer
 62
7
100
AcDbPolyline
 90
7
 70
0
 10
445.890766
 20
623.721071
 30
0.0
 10
443.954546
 20
623.721071
 30
0.0
 10
443.617817
 20
616.641452
 30
0.0
 10
443.673960
 20
611.567044
 30
0.0
 10
443.617817
 20
606.288022
 30
0.0
 10
443.421388
 20
597.203194
 30
0.0
 10
441.148431
 20
597.162256
 30
0.0
  0
SPLINE
  5
45c
100
AcDbEntity
  8
newlayer
 62
7
100
AcDbSpline
 70
8
 71
3
 72
8
 73
4
 74
0
 40
0
 40
0
 40
0
 40
0
 40
1
 40
1
 40
1
 40
1
 10
441.036177
 20
609.479976
 30
0.0
 10
441.036177
 20
611.908054
 30
0.0
 10
441.064238
 20
613.094811
 30
0.0
 10
441.120359
 20
613.040248
 30
0.0
  0
SPLINE
  5
45d
100
AcDbEntity
  8
newlayer
 62
7
100
AcDbSpline
 70
8
 71
3
 72
8
 73
4
 74
0
 40
0
 40
0
 40
0
 40
0
 40
1
 40
1
 40
1
 40
1
 10
441.120359
 20
613.040248
 30
0.0
 10
441.045529
 20
614.049672
 30
0.0
 10
440.970698
 20
615.059097
 30
0.0
 10
440.895867
 20
616.068523
 30
0.0
  0
LWPOLYLINE
  5
45e
100
AcDbEntity
  8
newlayer
 62
7
100
AcDbPolyline
 90
2
 70
0
 10
441.064249
 20
601.336369
 30
0.0
 10
441.036177
 20
609.479976
 30
0.0
  0
SPLINE
  5
45f
100
AcDbEntity
  8
newlayer
 62
7
100
AcDbSpline
 70
8
 71
3
 72
8
 73
4
 74
0
 40
0
 40
0
 40
0
 40
0
 40
1
 40
1
 40
1
 40
1
 10
439.745361
 20
623.721059
 30
0.0
 10
439.764076
 20
623.884749
 30
0.0
 10
439.689245
 20
623.966595
 30
0.0
 10
439.520869
 20
623.966595
 30
0.0
  0
SPLINE
  5
460
100
AcDbEntity
  8
newlayer
 62
7
100
AcDbSpline
 70
8
 71
3
 72
8
 73
4
 74
0
 40
0
 40
0
 40
0
 40
0
 40
1
 40
1
 40
1
 40
1
 10
439.520869
 20
623.966595
 30
0.0
 10
439.446044
 20
623.966595
 30
0.0
 10
439.230910
 20
623.925672
 30
0.0
 10
438.875466
 20
623.843826
 30
0.0
  0
SPLINE
  5
461
100
AcDbEntity
  8
newlayer
 62
7
100
AcDbSpline
 70
8
 71
3
 72
8
 73
4
 74
0
 40
0
 40
0
 40
0
 40
0
 40
1
 40
1
 40
1
 40
1
 10
438.875466
 20
623.843826
 30
0.0
 10
438.520022
 20
623.761981
 30
0.0
 10
438.267472
 20
623.734701
 30
0.0
 10
438.117816
 20
623.761986
 30
0.0
  0
SPLINE
  5
462
100
AcDbEntity
  8
newlayer
 62
7
100
AcDbSpline
 70
8
 71
3
 72
8
 73
4
 74
0
 40
0
 40
0
 40
0
 40
0
 40
1
 40
1
 40
1
 40
1
 10
438.117816
 20
623.761986
 30
0.0
 10
438.024276
 20
623.761986
 30
0.0
 10
437.912030
 20
623.843831
 30
0.0
 10
437.781078
 20
624.007522
 30
0.0
  0
LWPOLYLINE
  5
463
100
AcDbEntity
  8
newlayer
 62
7
100
AcDbPolyline
 90
3
 70
0
 10
440.895867
 20
616.068523
 30
0.0
 10
440.811685
 20
623.721059
 30
0.0
 10
439.745361
 20
623.721059
 30
0.0
  0
SPLINE
  5
464
100
AcDbEntity
  8
newlayer
 62
7
100
AcDbSpline
 70
8
 71
3
 72
8
 73
4
 74
0
 40
0
 40
0
 40
0
 40
0
 40
1
 40
1
 40
1
 40
1
 10
435.816787
 20
626.053659
 30
0.0
 10
435.835501
 20
626.435603
 30
0.0
 10
435.863562
 20
626.831189
 30
0.0
 10
435.900969
 20
627.240416
 30
0.0
  0
SPLINE
  5
465
100
AcDbEntity
  8
newlayer
 62
7
100
AcDbSpline
 70
8
 71
3
 72
8
 73
4
 74
0
 40
0
 40
0
 40
0
 40
0
 40
1
 40
1
 40
1
 40
1
 10
435.900969
 20
627.240416
 30
0.0
 10
435.938398
 20
627.786051
 30
0.0
 10
436.069351
 20
628.072510
 30
0.0
 10
436.293826
 20
628.099792
 30
0.0
  0
SPLINE
  5
466
100
AcDbEntity
  8
newlayer
 62
7
100
AcDbSpline
 70
8
 71
3
 72
8
 73
4
 74
0
 40
0
 40
0
 40
0
 40
0
 40
1
 40
1
 40
1
 40
1
 10
436.293826
 20
628.099792
 30
0.0
 10
436.275111
 20
627.908819
 30
0.0
 10
436.265754
 20
627.717847
 30
0.0
 10
436.265754
 20
627.526874
 30
0.0
  0
SPLINE
  5
467
100
AcDbEntity
  8
newlayer
 62
7
100
AcDbSpline
 70
8
 71
3
 72
8
 73
4
 74
0
 40
0
 40
0
 40
0
 40
0
 40
1
 40
1
 40
1
 40
1
 10
436.265754
 20
627.526874
 30
0.0
 10
436.265754
 20
626.681140
 30
0.0
 10
436.462182
 20
626.258272
 30
0.0
 10
436.855039
 20
626.258272
 30
0.0
  0
SPLINE
  5
468
100
AcDbEntity
  8
newlayer
 62
7
100
AcDbSpline
 70
8
 71
3
 72
8
 73
4
 74
0
 40
0
 40
0
 40
0
 40
0
 40
1
 40
1
 40
1
 40
1
 10
436.855039
 20
626.258272
 30
0.0
 10
436.911161
 20
626.258272
 30
0.0
 10
436.976637
 20
626.271914
 30
0.0
 10
437.051467
 20
626.299198
 30
0.0
  0
SPLINE
  5
469
100
AcDbEntity
  8
newlayer
 62
7
100
AcDbSpline
 70
8
 71
3
 72
8
 73
4
 74
0
 40
0
 40
0
 40
0
 40
0
 40
1
 40
1
 40
1
 40
1
 10
437.051467
 20
626.299198
 30
0.0
 10
437.332075
 20
626.326482
 30
0.0
 10
437.472379
 20
626.694786
 30
0.0
 10
437.472379
 20
627.404110
 30
0.0
  0
SPLINE
  5
46a
100
AcDbEntity
  8
newlayer
 62
7
100
AcDbSpline
 70
8
 71
3
 72
8
 73
4
 74
0
 40
0
 40
0
 40
0
 40
0
 40
1
 40
1
 40
1
 40
1
 10
437.472379
 20
627.404110
 30
0.0
 10
437.472379
 20
627.649646
 30
0.0
 10
437.444318
 20
627.895182
 30
0.0
 10
437.388197
 20
628.140718
 30
0.0
  0
SPLINE
  5
46b
100
AcDbEntity
  8
newlayer
 62
7
100
AcDbSpline
 70
8
 71
3
 72
8
 73
4
 74
0
 40
0
 40
0
 40
0
 40
0
 40
1
 40
1
 40
1
 40
1
 10
437.388197
 20
628.140718
 30
0.0
 10
437.481736
 20
628.058872
 30
0.0
 10
437.631398
 20
627.676927
 30
0.0
 10
437.837180
 20
626.994883
 30
0.0
  0
SPLINE
  5
46c
100
AcDbEntity
  8
newlayer
 62
7
100
AcDbSpline
 70
8
 71
3
 72
8
 73
4
 74
0
 40
0
 40
0
 40
0
 40
0
 40
1
 40
1
 40
1
 40
1
 10
437.837180
 20
626.994883
 30
0.0
 10
437.986836
 20
626.476530
 30
0.0
 10
438.192616
 20
626.203713
 30
0.0
 10
438.454521
 20
626.176431
 30
0.0
  0
LWPOLYLINE
  5
46d
100
AcDbEntity
  8
newlayer
 62
7
100
AcDbPolyline
 90
4
 70
0
 10
437.781078
 20
624.007522
 30
0.0
 10
437.416285
 20
623.802908
 30
0.0
 10
435.844859
 20
623.721068
 30
0.0
 10
435.816787
 20
626.053659
 30
0.0
  0
SPLINE
  5
46e
100
AcDbEntity
  8
newlayer
 62
7
100
AcDbSpline
 70
8
 71
3
 72
8
 73
4
 74
0
 40
0
 40
0
 40
0
 40
0
 40
1
 40
1
 40
1
 40
1
 10
388.787034
 20
596.998617
 30
0.0
 10
383.988795
 20
611.775924
 30
0.0
 10
381.589675
 20
625.638446
 30
0.0
 10
381.589675
 20
638.586185
 30
0.0
  0
SPLINE
  5
46f
100
AcDbEntity
  8
newlayer
 62
7
100
AcDbSpline
 70
8
 71
3
 72
8
 73
4
 74
0
 40
0
 40
0
 40
0
 40
0
 40
1
 40
1
 40
1
 40
1
 10
381.589675
 20
638.586185
 30
0.0
 10
381.589675
 20
652.378340
 30
0.0
 10
384.040949
 20
666.522337
 30
0.0
 10
388.943496
 20
681.018175
 30
0.0
  0
LWPOLYLINE
  5
470
100
AcDbEntity
  8
newlayer
 62
7
100
AcDbPolyline
 90
1
 70
1
 10
438.454521
 20
626.176431
 30
0.0
  0
SPLINE
  5
471
100
AcDbEntity
  8
newlayer
 62
7
100
AcDbSpline
 70
8
 71
3
 72
8
 73
4
 74
0
 40
0
 40
0
 40
0
 40
0
 40
1
 40
1
 40
1
 40
1
 10
393.011576
 20
681.018175
 30
0.0
 10
388.839191
 20
666.170496
 30
0.0
 10
386.752999
 20
651.920947
 30
0.0
 10
386.752999
 20
638.269528
 30
0.0
  0
SPLINE
  5
472
100
AcDbEntity
  8
newlayer
 62
7
100
AcDbSpline
 70
8
 71
3
 72
8
 73
4
 74
0
 40
0
 40
0
 40
0
 40
0
 40
1
 40
1
 40
1
 40
1
 10
386.752999
 20
638.269528
 30
0.0
 10
386.752999
 20
622.718168
 30
0.0
 10
388.839191
 20
608.961198
 30
0.0
 10
393.011576
 20
596.998617
 30
0.0
  0
LWPOLYLINE
  5
473
100
AcDbEntity
  8
newlayer
 62
7
100
AcDbPolyline
 90
2
 70
0
 10
388.943496
 20
681.018175
 30
0.0
 10
393.011576
 20
681.018175
 30
0.0
  0
LWPOLYLINE
  5
474
100
AcDbEntity
  8
newlayer
 62
7
100
AcDbPolyline
 90
2
 70
0
 10
393.011576
 20
596.998617
 30
0.0
 10
388.787034
 20
596.998617
 30
0.0
  0
SPLINE
  5
475
100
AcDbEntity
  8
newlayer
 62
7
100
AcDbSpline
 70
8
 71
3
 72
8
 73
4
 74
0
 40
0
 40
0
 40
0
 40
0
 40
1
 40
1
 40
1
 40
1
 10
448.585770
 20
596.998617
 30
0.0
 10
452.758154
 20
611.846292
 30
0.0
 10
454.844347
 20
626.095839
 30
0.0
 10
454.844347
 20
639.747258
 30
0.0
  0
SPLINE
  5
476
100
AcDbEntity
  8
newlayer
 62
7
100
AcDbSpline
 70
8
 71
3
 72
8
 73
4
 74
0
 40
0
 40
0
 40
0
 40
0
 40
1
 40
1
 40
1
 40
1
 10
454.844347
 20
639.747258
 30
0.0
 10
454.844347
 20
655.228250
 30
0.0
 10
452.784231
 20
668.985222
 30
0.0
 10
448.664001
 20
681.018175
 30
0.0
  0
LWPOLYLINE
  5
477
100
AcDbEntity
  8
newlayer
 62
7
100
AcDbPolyline
 90
2
 70
0
 10
452.653849
 20
596.998617
 30
0.0
 10
448.585770
 20
596.998617
 30
0.0
  0
SPLINE
  5
478
100
AcDbEntity
  8
newlayer
 62
7
100
AcDbSpline
 70
8
 71
3
 72
8
 73
4
 74
0
 40
0
 40
0
 40
0
 40
0
 40
1
 40
1
 40
1
 40
1
 10
452.810311
 20
681.018175
 30
0.0
 10
457.608551
 20
666.240864
 30
0.0
 10
460.007670
 20
652.378340
 30
0.0
 10
460.007670
 20
639.430603
 30
0.0
  0
SPLINE
  5
479
100
AcDbEntity
  8
newlayer
 62
7
100
AcDbSpline
 70
8
 71
3
 72
8
 73
4
 74
0
 40
0
 40
0
 40
0
 40
0
 40
1
 40
1
 40
1
 40
1
 10
460.007670
 20
639.430603
 30
0.0
 10
460.007670
 20
625.638446
 30
0.0
 10
457.556397
 20
611.494451
 30
0.0
 10
452.653849
 20
596.998617
 30
0.0
  0
LWPOLYLINE
  5
47a
100
AcDbEntity
  8
newlayer
 62
7
100
AcDbPolyline
 90
2
 70
0
 10
448.664001
 20
681.018175
 30
0.0
 10
452.810311
 20
681.018175
 30
0.0
  0
LWPOLYLINE
  5
47b
100
AcDbEntity
  8
newlayer
 62
7
100
AcDbPolyline
 90
1
 70
1
 10
452.653849
 20
596.998617
 30
0.0
  0
ENDSEC
  0
SECTION
  2
OBJECTS
  0
DICTIONARY
  5
C
330
0
100
AcDbDictionary
  3
ACAD_GROUP
350
D
  3
ACAD_MLINESTYLE
350
17
  0
DICTIONARY
  5
D
330
C
100
AcDbDictionary
  0
DICTIONARY
  5
1A
330
C
100
AcDbDictionary
  0
DICTIONARY
  5
17
330
C
100
AcDbDictionary
  3
STANDARD
350
18
  0
DICTIONARY
  5
19
330
C
100
AcDbDictionary
  0
ENDSEC
  0
EOF
