  0
SECTION
  2
HEADER
  9
$ACADVER
  1
AC1014
  9
$HANDSEED
  5
FFFF
  9
$MEASUREMENT
 70
     1
  0
ENDSEC
  0
SECTION
  2
TABLES
  0
TABLE
  2
VPORT
  5
8
330
0
100
AcDbSymbolTable
 70
     4
  0
VPORT
  5
2E
330
8
100
AcDbSymbolTableRecord
100
AcDbViewportTableRecord
  2
*ACTIVE
 70
     0
 10
0.0
 20
0.0
 11
1.0
 21
1.0
 12
210.0
 22
148.5
 13
0.0
 23
0.0
 14
10.0
 24
10.0
 15
10.0
 25
10.0
 16
0.0
 26
0.0
 36
1.0
 17
0.0
 27
0.0
 37
0.0
 40
341.0
 41
1.24
 42
50.0
 43
0.0
 44
0.0
 50
0.0
 51
0.0
 71
     0
 72
   100
 73
     1
 74
     3
 75
     0
 76
     0
 77
     0
 78
     0
  0
ENDTAB
  0
TABLE
  2
LTYPE
  5
5
330
0
100
AcDbSymbolTable
 70
     1
  0
LTYPE
  5
14
330
5
100
AcDbSymbolTableRecord
100
AcDbLinetypeTableRecord
  2
BYBLOCK
 70
     0
  3

 72
    65
 73
     0
 40
0.0
  0
LTYPE
  5
15
330
5
100
AcDbSymbolTableRecord
100
AcDbLinetypeTableRecord
  2
BYLAYER
 70
     0
  3

 72
    65
 73
     0
 40
0.0
  0
LTYPE
  5
16
330
5
100
AcDbSymbolTableRecord
100
AcDbLinetypeTableRecord
  2
CONTINUOUS
 70
     0
  3
Solid line
 72
    65
 73
     0
 40
0.0
  0
ENDTAB
  0
TABLE
  2
LAYER
  5
2
100
AcDbSymbolTable
 70
3
  0
LAYER
  5
50
100
AcDbSymbolTableRecord
100
AcDbLayerTableRecord
  2
0
 70
0
  6
CONTINUOUS
  0
LAYER
  5
51
100
AcDbSymbolTableRecord
100
AcDbLayerTableRecord
  2
Layer_1
 70
0
  6
CONTINUOUS
  0
LAYER
  5
52
100
AcDbSymbolTableRecord
100
AcDbLayerTableRecord
  2
newlayer
 70
0
  6
CONTINUOUS
  0
ENDTAB
  0
TABLE
  2
STYLE
  5
3
330
0
100
AcDbSymbolTable
 70
     1
  0
STYLE
  5
11
330
3
100
AcDbSymbolTableRecord
100
AcDbTextStyleTableRecord
  2
STANDARD
 70
     0
 40
0.0
 41
1.0
 50
0.0
 71
     0
 42
2.5
  3
txt
  4

  0
ENDTAB
  0
TABLE
  2
VIEW
  5
6
330
0
100
AcDbSymbolTable
 70
     0
  0
ENDTAB
  0
TABLE
  2
UCS
  5
7
330
0
100
AcDbSymbolTable
 70
     0
  0
ENDTAB
  0
TABLE
  2
APPID
  5
9
330
0
100
AcDbSymbolTable
 70
     2
  0
APPID
  5
12
330
9
100
AcDbSymbolTableRecord
100
AcDbRegAppTableRecord
  2
ACAD
 70
     0
  0
ENDTAB
  0
TABLE
  2
DIMSTYLE
  5
A
330
0
100
AcDbSymbolTable
 70
     1
  0
DIMSTYLE
105
27
330
A
100
AcDbSymbolTableRecord
100
AcDbDimStyleTableRecord
  2
ISO-25
 70
     0
  3

  4

  5

  6

  7

 40
1.0
 41
2.5
 42
0.625
 43
3.75
 44
1.25
 45
0.0
 46
0.0
 47
0.0
 48
0.0
140
2.5
141
2.5
142
0.0
143
0.03937007874016
144
1.0
145
0.0
146
1.0
147
0.625
 71
     0
 72
     0
 73
     0
 74
     0
 75
     0
 76
     0
 77
     1
 78
     8
170
     0
171
     3
172
     1
173
     0
174
     0
175
     0
176
     0
177
     0
178
     0
270
     2
271
     2
272
     2
273
     2
274
     3
340
11
275
     0
280
     0
281
     0
282
     0
283
     0
284
     8
285
     0
286
     0
287
     3
288
     0
  0
ENDTAB
  0
TABLE
  2
BLOCK_RECORD
  5
1
330
0
100
AcDbSymbolTable
 70
     1
  0
BLOCK_RECORD
  5
1F
330
1
100
AcDbSymbolTableRecord
100
AcDbBlockTableRecord
  2
*MODEL_SPACE
  0
BLOCK_RECORD
  5
1B
330
1
100
AcDbSymbolTableRecord
100
AcDbBlockTableRecord
  2
*PAPER_SPACE
  0
ENDTAB
  0
ENDSEC
  0
SECTION
  2
BLOCKS
  0
BLOCK
  5
20
330
1F
100
AcDbEntity
  8
0
100
AcDbBlockBegin
  2
*MODEL_SPACE
 70
     0
 10
0.0
 20
0.0
 30
0.0
  3
*MODEL_SPACE
  1

  0
ENDBLK
  5
21
330
1F
100
AcDbEntity
  8
0
100
AcDbBlockEnd
  0
BLOCK
  5
1C
330
1B
100
AcDbEntity
 67
     1
  8
0
100
AcDbBlockBegin
  2
*PAPER_SPACE
  1

  0
ENDBLK
  5
1D
330
1B
100
AcDbEntity
 67
     1
  8
0
100
AcDbBlockEnd
  0
ENDSEC
  0
SECTION
  2
ENTITIES
  0
LWPOLYLINE
  5
100
100
AcDbEntity
  8
Layer_1
 62
7
100
AcDbPolyline
 90
59
 70
0
 10
61.500000
 20
50.500020
 30
0.0
 10
77.714286
 20
50.500020
 30
0.0
 10
77.714286
 20
56.500020
 30
0.0
 10
92.714290
 20
56.500020
 30
0.0
 10
92.714290
 20
50.500020
 30
0.0
 10
108.928570
 20
50.500020
 30
0.0
 10
108.928570
 20
56.500020
 30
0.0
 10
123.928570
 20
56.500020
 30
0.0
 10
123.928570
 20
50.500020
 30
0.0
 10
140.142860
 20
50.500020
 30
0.0
 10
140.142860
 20
56.500020
 30
0.0
 10
155.142860
 20
56.500020
 30
0.0
 10
155.142860
 20
50.500020
 30
0.0
 10
171.357140
 20
50.500020
 30
0.0
 10
171.357140
 20
56.500020
 30
0.0
 10
186.357140
 20
56.500020
 30
0.0
 10
186.357140
 20
50.500020
 30
0.0
 10
202.571430
 20
50.500020
 30
0.0
 10
202.571430
 20
56.500020
 30
0.0
 10
217.571430
 20
56.500020
 30
0.0
 10
217.571430
 20
50.500020
 30
0.0
 10
233.785710
 20
50.500020
 30
0.0
 10
233.785710
 20
56.500020
 30
0.0
 10
248.785710
 20
56.500020
 30
0.0
 10
248.785710
 20
50.500020
 30
0.0
 10
265.000000
 20
50.500020
 30
0.0
 10
265.000000
 20
56.500020
 30
0.0
 10
280.000000
 20
56.500020
 30
0.0
 10
280.000000
 20
50.500020
 30
0.0
 10
296.214290
 20
50.500020
 30
0.0
 10
296.214290
 20
56.500020
 30
0.0
 10
311.214290
 20
56.500020
 30
0.0
 10
311.214290
 20
50.500020
 30
0.0
 10
327.428570
 20
50.500020
 30
0.0
 10
327.428570
 20
56.500020
 30
0.0
 10
342.428570
 20
56.500020
 30
0.0
 10
342.428570
 20
50.500020
 30
0.0
 10
358.642860
 20
50.500020
 30
0.0
 10
358.642860
 20
56.500020
 30
0.0
 10
373.642860
 20
56.500020
 30
0.0
 10
373.642860
 20
50.500020
 30
0.0
 10
389.857140
 20
50.500020
 30
0.0
 10
389.857140
 20
56.500020
 30
0.0
 10
404.857140
 20
56.500020
 30
0.0
 10
404.857140
 20
50.500020
 30
0.0
 10
421.071430
 20
50.500020
 30
0.0
 10
421.071430
 20
56.500020
 30
0.0
 10
436.071430
 20
56.500020
 30
0.0
 10
436.071430
 20
50.500020
 30
0.0
 10
452.285710
 20
50.500020
 30
0.0
 10
452.285710
 20
56.500020
 30
0.0
 10
467.285710
 20
56.500020
 30
0.0
 10
467.285710
 20
50.500020
 30
0.0
 10
483.500000
 20
50.500020
 30
0.0
 10
483.500000
 20
33.000020
 30
0.0
 10
477.500000
 20
33.000020
 30
0.0
 10
477.500000
 20
18.000020
 30
0.0
 10
483.500000
 20
18.000020
 30
0.0
 10
483.500000
 20
0.500020
 30
0.0
  0
LWPOLYLINE
  5
101
100
AcDbEntity
  8
Layer_1
 62
7
100
AcDbPolyline
 90
6
 70
0
 10
61.500000
 20
0.500020
 30
0.0
 10
61.500000
 20
18.000020
 30
0.0
 10
67.500000
 20
18.000020
 30
0.0
 10
67.500000
 20
33.000020
 30
0.0
 10
61.500000
 20
33.000020
 30
0.0
 10
61.500000
 20
50.500020
 30
0.0
  0
LWPOLYLINE
  5
102
100
AcDbEntity
  8
Layer_1
 62
7
100
AcDbPolyline
 90
76
 70
0
 10
0.500000
 20
567.500020
 30
0.0
 10
18.000000
 20
567.500020
 30
0.0
 10
18.000000
 20
573.500020
 30
0.0
 10
33.000000
 20
573.500020
 30
0.0
 10
33.000000
 20
567.500020
 30
0.0
 10
50.500000
 20
567.500020
 30
0.0
 10
50.500000
 20
557.500020
 30
0.0
 10
56.500000
 20
557.500020
 30
0.0
 10
56.500000
 20
542.500020
 30
0.0
 10
50.500000
 20
542.500020
 30
0.0
 10
50.500000
 20
526.500020
 30
0.0
 10
56.500000
 20
526.500020
 30
0.0
 10
56.500000
 20
511.500020
 30
0.0
 10
50.500000
 20
511.500020
 30
0.0
 10
50.500000
 20
495.500020
 30
0.0
 10
56.500000
 20
495.500020
 30
0.0
 10
56.500000
 20
480.500020
 30
0.0
 10
50.500000
 20
480.500020
 30
0.0
 10
50.500000
 20
464.500020
 30
0.0
 10
56.500000
 20
464.500020
 30
0.0
 10
56.500000
 20
449.500020
 30
0.0
 10
50.500000
 20
449.500020
 30
0.0
 10
50.500000
 20
433.500020
 30
0.0
 10
56.500000
 20
433.500020
 30
0.0
 10
56.500000
 20
418.500020
 30
0.0
 10
50.500000
 20
418.500020
 30
0.0
 10
50.500000
 20
402.500020
 30
0.0
 10
56.500000
 20
402.500020
 30
0.0
 10
56.500000
 20
387.500020
 30
0.0
 10
50.500000
 20
387.500020
 30
0.0
 10
50.500000
 20
371.500020
 30
0.0
 10
56.500000
 20
371.500020
 30
0.0
 10
56.500000
 20
356.500020
 30
0.0
 10
50.500000
 20
356.500020
 30
0.0
 10
50.500000
 20
340.500020
 30
0.0
 10
56.500000
 20
340.500020
 30
0.0
 10
56.500000
 20
325.500020
 30
0.0
 10
50.500000
 20
325.500020
 30
0.0
 10
50.500000
 20
309.500020
 30
0.0
 10
56.500000
 20
309.500020
 30
0.0
 10
56.500000
 20
294.500020
 30
0.0
 10
50.500000
 20
294.500020
 30
0.0
 10
50.500000
 20
278.500020
 30
0.0
 10
56.500000
 20
278.500020
 30
0.0
 10
56.500000
 20
263.500020
 30
0.0
 10
50.500000
 20
263.500020
 30
0.0
 10
50.500000
 20
247.500020
 30
0.0
 10
56.500000
 20
247.500020
 30
0.0
 10
56.500000
 20
232.500020
 30
0.0
 10
50.500000
 20
232.500020
 30
0.0
 10
50.500000
 20
216.500020
 30
0.0
 10
56.500000
 20
216.500020
 30
0.0
 10
56.500000
 20
201.500020
 30
0.0
 10
50.500000
 20
201.500020
 30
0.0
 10
50.500000
 20
185.500020
 30
0.0
 10
56.500000
 20
185.500020
 30
0.0
 10
56.500000
 20
170.500020
 30
0.0
 10
50.500000
 20
170.500020
 30
0.0
 10
50.500000
 20
154.500020
 30
0.0
 10
56.500000
 20
154.500020
 30
0.0
 10
56.500000
 20
139.500020
 30
0.0
 10
50.500000
 20
139.500020
 30
0.0
 10
50.500000
 20
123.500020
 30
0.0
 10
56.500000
 20
123.500020
 30
0.0
 10
56.500000
 20
108.500020
 30
0.0
 10
50.500000
 20
108.500020
 30
0.0
 10
50.500000
 20
92.500020
 30
0.0
 10
56.500000
 20
92.500020
 30
0.0
 10
56.500000
 20
77.500020
 30
0.0
 10
50.500000
 20
77.500020
 30
0.0
 10
50.500000
 20
67.500020
 30
0.0
 10
33.000000
 20
67.500020
 30
0.0
 10
33.000000
 20
61.500020
 30
0.0
 10
18.000000
 20
61.500020
 30
0.0
 10
18.000000
 20
67.500020
 30
0.0
 10
0.500000
 20
67.500020
 30
0.0
  0
LWPOLYLINE
  5
103
100
AcDbEntity
  8
Layer_1
 62
7
100
AcDbPolyline
 90
236
 70
1
 10
61.500000
 20
573.500020
 30
0.0
 10
77.714286
 20
573.500020
 30
0.0
 10
77.714286
 20
567.500020
 30
0.0
 10
92.714290
 20
567.500020
 30
0.0
 10
92.714290
 20
573.500020
 30
0.0
 10
108.928570
 20
573.500020
 30
0.0
 10
108.928570
 20
567.500020
 30
0.0
 10
123.928570
 20
567.500020
 30
0.0
 10
123.928570
 20
573.500020
 30
0.0
 10
140.142860
 20
573.500020
 30
0.0
 10
140.142860
 20
567.500020
 30
0.0
 10
155.142860
 20
567.500020
 30
0.0
 10
155.142860
 20
573.500020
 30
0.0
 10
171.357140
 20
573.500020
 30
0.0
 10
171.357140
 20
567.500020
 30
0.0
 10
186.357140
 20
567.500020
 30
0.0
 10
186.357140
 20
573.500020
 30
0.0
 10
202.571430
 20
573.500020
 30
0.0
 10
202.571430
 20
567.500020
 30
0.0
 10
217.571430
 20
567.500020
 30
0.0
 10
217.571430
 20
573.500020
 30
0.0
 10
233.785710
 20
573.500020
 30
0.0
 10
233.785710
 20
567.500020
 30
0.0
 10
248.785710
 20
567.500020
 30
0.0
 10
248.785710
 20
573.500020
 30
0.0
 10
265.000000
 20
573.500020
 30
0.0
 10
265.000000
 20
567.500020
 30
0.0
 10
280.000000
 20
567.500020
 30
0.0
 10
280.000000
 20
573.500020
 30
0.0
 10
296.214290
 20
573.500020
 30
0.0
 10
296.214290
 20
567.500020
 30
0.0
 10
311.214290
 20
567.500020
 30
0.0
 10
311.214290
 20
573.500020
 30
0.0
 10
327.428570
 20
573.500020
 30
0.0
 10
327.428570
 20
567.500020
 30
0.0
 10
342.428570
 20
567.500020
 30
0.0
 10
342.428570
 20
573.500020
 30
0.0
 10
358.642860
 20
573.500020
 30
0.0
 10
358.642860
 20
567.500020
 30
0.0
 10
373.642860
 20
567.500020
 30
0.0
 10
373.642860
 20
573.500020
 30
0.0
 10
389.857140
 20
573.500020
 30
0.0
 10
389.857140
 20
567.500020
 30
0.0
 10
404.857140
 20
567.500020
 30
0.0
 10
404.857140
 20
573.500020
 30
0.0
 10
421.071430
 20
573.500020
 30
0.0
 10
421.071430
 20
567.500020
 30
0.0
 10
436.071430
 20
567.500020
 30
0.0
 10
436.071430
 20
573.500020
 30
0.0
 10
452.285710
 20
573.500020
 30
0.0
 10
452.285710
 20
567.500020
 30
0.0
 10
467.285710
 20
567.500020
 30
0.0
 10
467.285710
 20
573.500020
 30
0.0
 10
483.500000
 20
573.500020
 30
0.0
 10
483.500000
 20
557.500020
 30
0.0
 10
477.500000
 20
557.500020
 30
0.0
 10
477.500000
 20
542.500020
 30
0.0
 10
483.500000
 20
542.500020
 30
0.0
 10
483.500000
 20
526.500020
 30
0.0
 10
477.500000
 20
526.500020
 30
0.0
 10
477.500000
 20
511.500020
 30
0.0
 10
483.500000
 20
511.500020
 30
0.0
 10
483.500000
 20
495.500020
 30
0.0
 10
477.500000
 20
495.500020
 30
0.0
 10
477.500000
 20
480.500020
 30
0.0
 10
483.500000
 20
480.500020
 30
0.0
 10
483.500000
 20
464.500020
 30
0.0
 10
477.500000
 20
464.500020
 30
0.0
 10
477.500000
 20
449.500020
 30
0.0
 10
483.500000
 20
449.500020
 30
0.0
 10
483.500000
 20
433.500020
 30
0.0
 10
477.500000
 20
433.500020
 30
0.0
 10
477.500000
 20
418.500020
 30
0.0
 10
483.500000
 20
418.500020
 30
0.0
 10
483.500000
 20
402.500020
 30
0.0
 10
477.500000
 20
402.500020
 30
0.0
 10
477.500000
 20
387.500020
 30
0.0
 10
483.500000
 20
387.500020
 30
0.0
 10
483.500000
 20
371.500020
 30
0.0
 10
477.500000
 20
371.500020
 30
0.0
 10
477.500000
 20
356.500020
 30
0.0
 10
483.500000
 20
356.500020
 30
0.0
 10
483.500000
 20
340.500020
 30
0.0
 10
477.500000
 20
340.500020
 30
0.0
 10
477.500000
 20
325.500020
 30
0.0
 10
483.500000
 20
325.500020
 30
0.0
 10
483.500000
 20
309.500020
 30
0.0
 10
477.500000
 20
309.500020
 30
0.0
 10
477.500000
 20
294.500020
 30
0.0
 10
483.500000
 20
294.500020
 30
0.0
 10
483.500000
 20
278.500020
 30
0.0
 10
477.500000
 20
278.500020
 30
0.0
 10
477.500000
 20
263.500020
 30
0.0
 10
483.500000
 20
263.500020
 30
0.0
 10
483.500000
 20
247.500020
 30
0.0
 10
477.500000
 20
247.500020
 30
0.0
 10
477.500000
 20
232.500020
 30
0.0
 10
483.500000
 20
232.500020
 30
0.0
 10
483.500000
 20
216.500020
 30
0.0
 10
477.500000
 20
216.500020
 30
0.0
 10
477.500000
 20
201.500020
 30
0.0
 10
483.500000
 20
201.500020
 30
0.0
 10
483.500000
 20
185.500020
 30
0.0
 10
477.500000
 20
185.500020
 30
0.0
 10
477.500000
 20
170.500020
 30
0.0
 10
483.500000
 20
170.500020
 30
0.0
 10
483.500000
 20
154.500020
 30
0.0
 10
477.500000
 20
154.500020
 30
0.0
 10
477.500000
 20
139.500020
 30
0.0
 10
483.500000
 20
139.500020
 30
0.0
 10
483.500000
 20
123.500020
 30
0.0
 10
477.500000
 20
123.500020
 30
0.0
 10
477.500000
 20
108.500020
 30
0.0
 10
483.500000
 20
108.500020
 30
0.0
 10
483.500000
 20
92.500020
 30
0.0
 10
477.500000
 20
92.500020
 30
0.0
 10
477.500000
 20
77.500020
 30
0.0
 10
483.500000
 20
77.500020
 30
0.0
 10
483.500000
 20
61.500020
 30
0.0
 10
467.285720
 20
61.500020
 30
0.0
 10
467.285720
 20
67.500020
 30
0.0
 10
452.285720
 20
67.500020
 30
0.0
 10
452.285720
 20
61.500020
 30
0.0
 10
436.071440
 20
61.500020
 30
0.0
 10
436.071440
 20
67.500020
 30
0.0
 10
421.071440
 20
67.500020
 30
0.0
 10
421.071440
 20
61.500020
 30
0.0
 10
404.857150
 20
61.500020
 30
0.0
 10
404.857150
 20
67.500020
 30
0.0
 10
389.857150
 20
67.500020
 30
0.0
 10
389.857150
 20
61.500020
 30
0.0
 10
373.642870
 20
61.500020
 30
0.0
 10
373.642870
 20
67.500020
 30
0.0
 10
358.642870
 20
67.500020
 30
0.0
 10
358.642870
 20
61.500020
 30
0.0
 10
342.428580
 20
61.500020
 30
0.0
 10
342.428580
 20
67.500020
 30
0.0
 10
327.428580
 20
67.500020
 30
0.0
 10
327.428580
 20
61.500020
 30
0.0
 10
311.214300
 20
61.500020
 30
0.0
 10
311.214300
 20
67.500020
 30
0.0
 10
296.214300
 20
67.500020
 30
0.0
 10
296.214300
 20
61.500020
 30
0.0
 10
280.000010
 20
61.500020
 30
0.0
 10
280.000010
 20
67.500020
 30
0.0
 10
265.000010
 20
67.500020
 30
0.0
 10
265.000010
 20
61.500020
 30
0.0
 10
248.785720
 20
61.500020
 30
0.0
 10
248.785720
 20
67.500020
 30
0.0
 10
233.785720
 20
67.500020
 30
0.0
 10
233.785720
 20
61.500020
 30
0.0
 10
217.571440
 20
61.500020
 30
0.0
 10
217.571440
 20
67.500020
 30
0.0
 10
202.571440
 20
67.500020
 30
0.0
 10
202.571440
 20
61.500020
 30
0.0
 10
186.357150
 20
61.500020
 30
0.0
 10
186.357150
 20
67.500020
 30
0.0
 10
171.357150
 20
67.500020
 30
0.0
 10
171.357150
 20
61.500020
 30
0.0
 10
155.142870
 20
61.500020
 30
0.0
 10
155.142870
 20
67.500020
 30
0.0
 10
140.142870
 20
67.500020
 30
0.0
 10
140.142870
 20
61.500020
 30
0.0
 10
123.928580
 20
61.500020
 30
0.0
 10
123.928580
 20
67.500020
 30
0.0
 10
108.928580
 20
67.500020
 30
0.0
 10
108.928580
 20
61.500020
 30
0.0
 10
92.714300
 20
61.500020
 30
0.0
 10
92.714300
 20
67.500020
 30
0.0
 10
77.714296
 20
67.500020
 30
0.0
 10
77.714296
 20
61.500020
 30
0.0
 10
61.500010
 20
61.500020
 30
0.0
 10
61.500000
 20
77.500020
 30
0.0
 10
67.500000
 20
77.500020
 30
0.0
 10
67.500000
 20
92.500020
 30
0.0
 10
61.500000
 20
92.500020
 30
0.0
 10
61.500000
 20
108.500020
 30
0.0
 10
67.500000
 20
108.500020
 30
0.0
 10
67.500000
 20
123.500020
 30
0.0
 10
61.500000
 20
123.500020
 30
0.0
 10
61.500000
 20
139.500020
 30
0.0
 10
67.500000
 20
139.500020
 30
0.0
 10
67.500000
 20
154.500020
 30
0.0
 10
61.500000
 20
154.500020
 30
0.0
 10
61.500000
 20
170.500020
 30
0.0
 10
67.500000
 20
170.500020
 30
0.0
 10
67.500000
 20
185.500020
 30
0.0
 10
61.500000
 20
185.500020
 30
0.0
 10
61.500000
 20
201.500020
 30
0.0
 10
67.500000
 20
201.500020
 30
0.0
 10
67.500000
 20
216.500020
 30
0.0
 10
61.500000
 20
216.500020
 30
0.0
 10
61.500000
 20
232.500020
 30
0.0
 10
67.500000
 20
232.500020
 30
0.0
 10
67.500000
 20
247.500020
 30
0.0
 10
61.500000
 20
247.500020
 30
0.0
 10
61.500000
 20
263.500020
 30
0.0
 10
67.500000
 20
263.500020
 30
0.0
 10
67.500000
 20
278.500020
 30
0.0
 10
61.500000
 20
278.500020
 30
0.0
 10
61.500000
 20
294.500020
 30
0.0
 10
67.500000
 20
294.500020
 30
0.0
 10
67.500000
 20
309.500020
 30
0.0
 10
61.500000
 20
309.500020
 30
0.0
 10
61.500000
 20
325.500020
 30
0.0
 10
67.500000
 20
325.500020
 30
0.0
 10
67.500000
 20
340.500020
 30
0.0
 10
61.500000
 20
340.500020
 30
0.0
 10
61.500000
 20
356.500020
 30
0.0
 10
67.500000
 20
356.500020
 30
0.0
 10
67.500000
 20
371.500020
 30
0.0
 10
61.500000
 20
371.500020
 30
0.0
 10
61.500000
 20
387.500020
 30
0.0
 10
67.500000
 20
387.500020
 30
0.0
 10
67.500000
 20
402.500020
 30
0.0
 10
61.500000
 20
402.500020
 30
0.0
 10
61.500000
 20
418.500020
 30
0.0
 10
67.500000
 20
418.500020
 30
0.0
 10
67.500000
 20
433.500020
 30
0.0
 10
61.500000
 20
433.500020
 30
0.0
 10
61.500000
 20
449.500020
 30
0.0
 10
67.500000
 20
449.500020
 30
0.0
 10
67.500000
 20
464.500020
 30
0.0
 10
61.500000
 20
464.500020
 30
0.0
 10
61.500000
 20
480.500020
 30
0.0
 10
67.500000
 20
480.500020
 30
0.0
 10
67.500000
 20
495.500020
 30
0.0
 10
61.500000
 20
495.500020
 30
0.0
 10
61.500000
 20
511.500020
 30
0.0
 10
67.500000
 20
511.500020
 30
0.0
 10
67.500000
 20
526.500020
 30
0.0
 10
61.500000
 20
526.500020
 30
0.0
 10
61.500000
 20
542.500020
 30
0.0
 10
67.500000
 20
542.500020
 30
0.0
 10
67.500000
 20
557.500020
 30
0.0
 10
61.500000
 20
557.500020
 30
0.0
  0
LWPOLYLINE
  5
104
100
AcDbEntity
  8
Layer_1
 62
7
100
AcDbPolyline
 90
6
 70
0
 10
494.500000
 20
567.500020
 30
0.0
 10
512.000000
 20
567.500020
 30
0.0
 10
512.000000
 20
573.500020
 30
0.0
 10
527.000000
 20
573.500020
 30
0.0
 10
527.000000
 20
567.500020
 30
0.0
 10
544.500000
 20
567.500020
 30
0.0
  0
LWPOLYLINE
  5
105
100
AcDbEntity
  8
Layer_1
 62
7
100
AcDbPolyline
 90
71
 70
0
 10
544.500000
 20
67.500020
 30
0.0
 10
527.000000
 20
67.500020
 30
0.0
 10
527.000000
 20
61.500020
 30
0.0
 10
512.000000
 20
61.500020
 30
0.0
 10
512.000000
 20
67.500020
 30
0.0
 10
494.500000
 20
67.500020
 30
0.0
 10
494.500000
 20
77.500020
 30
0.0
 10
488.500000
 20
77.500020
 30
0.0
 10
488.500000
 20
92.500020
 30
0.0
 10
494.500000
 20
92.500020
 30
0.0
 10
494.500000
 20
108.500020
 30
0.0
 10
488.500000
 20
108.500020
 30
0.0
 10
488.500000
 20
123.500020
 30
0.0
 10
494.500000
 20
123.500020
 30
0.0
 10
494.500000
 20
139.500020
 30
0.0
 10
488.500000
 20
139.500020
 30
0.0
 10
488.500000
 20
154.500020
 30
0.0
 10
494.500000
 20
154.500020
 30
0.0
 10
494.500000
 20
170.500020
 30
0.0
 10
488.500000
 20
170.500020
 30
0.0
 10
488.500000
 20
185.500020
 30
0.0
 10
494.500000
 20
185.500020
 30
0.0
 10
494.500000
 20
201.500020
 30
0.0
 10
488.500000
 20
201.500020
 30
0.0
 10
488.500000
 20
216.500020
 30
0.0
 10
494.500000
 20
216.500020
 30
0.0
 10
494.500000
 20
232.500020
 30
0.0
 10
488.500000
 20
232.500020
 30
0.0
 10
488.500000
 20
247.500020
 30
0.0
 10
494.500000
 20
247.500020
 30
0.0
 10
494.500000
 20
263.500020
 30
0.0
 10
488.500000
 20
263.500020
 30
0.0
 10
488.500000
 20
278.500020
 30
0.0
 10
494.500000
 20
278.500020
 30
0.0
 10
494.500000
 20
294.500020
 30
0.0
 10
488.500000
 20
294.500020
 30
0.0
 10
488.500000
 20
309.500020
 30
0.0
 10
494.500000
 20
309.500020
 30
0.0
 10
494.500000
 20
325.500020
 30
0.0
 10
488.500000
 20
325.500020
 30
0.0
 10
488.500000
 20
340.500020
 30
0.0
 10
494.500000
 20
340.500020
 30
0.0
 10
494.500000
 20
356.500020
 30
0.0
 10
488.500000
 20
356.500020
 30
0.0
 10
488.500000
 20
371.500020
 30
0.0
 10
494.500000
 20
371.500020
 30
0.0
 10
494.500000
 20
387.500020
 30
0.0
 10
488.500000
 20
387.500020
 30
0.0
 10
488.500000
 20
402.500020
 30
0.0
 10
494.500000
 20
402.500020
 30
0.0
 10
494.500000
 20
418.500020
 30
0.0
 10
488.500000
 20
418.500020
 30
0.0
 10
488.500000
 20
433.500020
 30
0.0
 10
494.500000
 20
433.500020
 30
0.0
 10
494.500000
 20
449.500020
 30
0.0
 10
488.500000
 20
449.500020
 30
0.0
 10
488.500000
 20
464.500020
 30
0.0
 10
494.500000
 20
464.500020
 30
0.0
 10
494.500000
 20
480.500020
 30
0.0
 10
488.500000
 20
480.500020
 30
0.0
 10
488.500000
 20
495.500020
 30
0.0
 10
494.500000
 20
495.500020
 30
0.0
 10
494.500000
 20
511.500020
 30
0.0
 10
488.500000
 20
511.500020
 30
0.0
 10
488.500000
 20
526.500020
 30
0.0
 10
494.500000
 20
526.500020
 30
0.0
 10
494.500000
 20
542.500020
 30
0.0
 10
488.500000
 20
542.500020
 30
0.0
 10
488.500000
 20
557.500020
 30
0.0
 10
494.500000
 20
557.500020
 30
0.0
 10
494.500000
 20
567.500020
 30
0.0
  0
LWPOLYLINE
  5
106
100
AcDbEntity
  8
Layer_1
 62
7
100
AcDbPolyline
 90
6
 70
0
 10
483.500000
 20
634.500020
 30
0.0
 10
483.500000
 20
617.000020
 30
0.0
 10
477.500000
 20
617.000020
 30
0.0
 10
477.500000
 20
602.000020
 30
0.0
 10
483.500000
 20
602.000020
 30
0.0
 10
483.500000
 20
584.500020
 30
0.0
  0
LWPOLYLINE
  5
107
100
AcDbEntity
  8
Layer_1
 62
7
100
AcDbPolyline
 90
6
 70
0
 10
61.500000
 20
584.500020
 30
0.0
 10
61.500000
 20
602.000020
 30
0.0
 10
67.500000
 20
602.000020
 30
0.0
 10
67.500000
 20
617.000020
 30
0.0
 10
61.500000
 20
617.000020
 30
0.0
 10
61.500000
 20
634.500020
 30
0.0
  0
LWPOLYLINE
  5
108
100
AcDbEntity
  8
Layer_1
 62
7
100
AcDbPolyline
 90
4
 70
1
 10
92.714300
 20
640.500020
 30
0.0
 10
108.928587
 20
640.500020
 30
0.0
 10
108.928587
 20
634.500020
 30
0.0
 10
92.714300
 20
634.500020
 30
0.0
  0
LWPOLYLINE
  5
109
100
AcDbEntity
  8
Layer_1
 62
7
100
AcDbPolyline
 90
4
 70
1
 10
123.928590
 20
640.500020
 30
0.0
 10
140.142877
 20
640.500020
 30
0.0
 10
140.142877
 20
634.500020
 30
0.0
 10
123.928590
 20
634.500020
 30
0.0
  0
LWPOLYLINE
  5
10a
100
AcDbEntity
  8
Layer_1
 62
7
100
AcDbPolyline
 90
4
 70
1
 10
155.142880
 20
640.500020
 30
0.0
 10
171.357167
 20
640.500020
 30
0.0
 10
171.357167
 20
634.500020
 30
0.0
 10
155.142880
 20
634.500020
 30
0.0
  0
LWPOLYLINE
  5
10b
100
AcDbEntity
  8
Layer_1
 62
7
100
AcDbPolyline
 90
4
 70
1
 10
186.357150
 20
640.500020
 30
0.0
 10
202.571437
 20
640.500020
 30
0.0
 10
202.571437
 20
634.500020
 30
0.0
 10
186.357150
 20
634.500020
 30
0.0
  0
LWPOLYLINE
  5
10c
100
AcDbEntity
  8
Layer_1
 62
7
100
AcDbPolyline
 90
4
 70
1
 10
217.571460
 20
640.500020
 30
0.0
 10
233.785747
 20
640.500020
 30
0.0
 10
233.785747
 20
634.500020
 30
0.0
 10
217.571460
 20
634.500020
 30
0.0
  0
LWPOLYLINE
  5
10d
100
AcDbEntity
  8
Layer_1
 62
7
100
AcDbPolyline
 90
4
 70
1
 10
248.785740
 20
640.500020
 30
0.0
 10
265.000027
 20
640.500020
 30
0.0
 10
265.000027
 20
634.500020
 30
0.0
 10
248.785740
 20
634.500020
 30
0.0
  0
LWPOLYLINE
  5
10e
100
AcDbEntity
  8
Layer_1
 62
7
100
AcDbPolyline
 90
4
 70
1
 10
280.000030
 20
640.500020
 30
0.0
 10
296.214317
 20
640.500020
 30
0.0
 10
296.214317
 20
634.500020
 30
0.0
 10
280.000030
 20
634.500020
 30
0.0
  0
LWPOLYLINE
  5
10f
100
AcDbEntity
  8
Layer_1
 62
7
100
AcDbPolyline
 90
4
 70
1
 10
311.214290
 20
640.500020
 30
0.0
 10
327.428577
 20
640.500020
 30
0.0
 10
327.428577
 20
634.500020
 30
0.0
 10
311.214290
 20
634.500020
 30
0.0
  0
LWPOLYLINE
  5
110
100
AcDbEntity
  8
Layer_1
 62
7
100
AcDbPolyline
 90
4
 70
1
 10
342.428590
 20
640.500020
 30
0.0
 10
358.642877
 20
640.500020
 30
0.0
 10
358.642877
 20
634.500020
 30
0.0
 10
342.428590
 20
634.500020
 30
0.0
  0
LWPOLYLINE
  5
111
100
AcDbEntity
  8
Layer_1
 62
7
100
AcDbPolyline
 90
4
 70
1
 10
373.642850
 20
640.500020
 30
0.0
 10
389.857137
 20
640.500020
 30
0.0
 10
389.857137
 20
634.500020
 30
0.0
 10
373.642850
 20
634.500020
 30
0.0
  0
LWPOLYLINE
  5
112
100
AcDbEntity
  8
Layer_1
 62
7
100
AcDbPolyline
 90
4
 70
1
 10
404.857150
 20
640.500020
 30
0.0
 10
421.071437
 20
640.500020
 30
0.0
 10
421.071437
 20
634.500020
 30
0.0
 10
404.857150
 20
634.500020
 30
0.0
  0
LWPOLYLINE
  5
113
100
AcDbEntity
  8
Layer_1
 62
7
100
AcDbPolyline
 90
4
 70
1
 10
436.071410
 20
640.500020
 30
0.0
 10
452.285697
 20
640.500020
 30
0.0
 10
452.285697
 20
634.500020
 30
0.0
 10
436.071410
 20
634.500020
 30
0.0
  0
LWPOLYLINE
  5
114
100
AcDbEntity
  8
Layer_1
 62
7
100
AcDbPolyline
 90
10
 70
0
 10
61.500018
 20
634.500027
 30
0.0
 10
77.714306
 20
634.500027
 30
0.0
 10
77.714306
 20
640.500028
 30
0.0
 10
61.500018
 20
640.500028
 30
0.0
 10
61.500018
 20
812.479920
 30
0.0
 10
483.500020
 20
812.479920
 30
0.0
 10
483.500020
 20
640.500028
 30
0.0
 10
467.285720
 20
640.500028
 30
0.0
 10
467.285720
 20
634.500027
 30
0.0
 10
483.500020
 20
634.500027
 30
0.0
  0
LWPOLYLINE
  5
115
100
AcDbEntity
  8
Layer_1
 62
7
100
AcDbPolyline
 90
3
 70
0
 10
544.499990
 20
567.500021
 30
0.0
 10
544.499990
 20
505.119970
 30
0.0
 10
544.499990
 20
67.500030
 30
0.0
  0
LWPOLYLINE
  5
116
100
AcDbEntity
  8
Layer_1
 62
7
100
AcDbPolyline
 90
2
 70
0
 10
483.499990
 20
0.500020
 30
0.0
 10
61.499998
 20
0.500020
 30
0.0
  0
LWPOLYLINE
  5
117
100
AcDbEntity
  8
Layer_1
 62
7
100
AcDbPolyline
 90
2
 70
0
 10
0.500000
 20
67.500030
 30
0.0
 10
0.500000
 20
567.500021
 30
0.0
  0
SPLINE
  5
118
100
AcDbEntity
  8
Layer_1
 62
7
100
AcDbSpline
 70
8
 71
3
 72
8
 73
4
 74
0
 40
0
 40
0
 40
0
 40
0
 40
1
 40
1
 40
1
 40
1
 10
225.352421
 20
702.750057
 30
0.0
 10
225.352421
 20
700.943304
 30
0.0
 10
226.357945
 20
699.759569
 30
0.0
 10
228.368993
 20
699.198853
 30
0.0
  0
SPLINE
  5
119
100
AcDbEntity
  8
Layer_1
 62
7
100
AcDbSpline
 70
8
 71
3
 72
8
 73
4
 74
0
 40
0
 40
0
 40
0
 40
0
 40
1
 40
1
 40
1
 40
1
 10
228.368993
 20
699.198853
 30
0.0
 10
229.334299
 20
698.918495
 30
0.0
 10
229.997946
 20
698.529109
 30
0.0
 10
230.359934
 20
698.030694
 30
0.0
  0
SPLINE
  5
11a
100
AcDbEntity
  8
Layer_1
 62
7
100
AcDbSpline
 70
8
 71
3
 72
8
 73
4
 74
0
 40
0
 40
0
 40
0
 40
0
 40
1
 40
1
 40
1
 40
1
 10
230.359934
 20
698.030694
 30
0.0
 10
230.762146
 20
697.563431
 30
0.0
 10
230.963251
 20
696.675630
 30
0.0
 10
230.963251
 20
695.367291
 30
0.0
  0
SPLINE
  5
11b
100
AcDbEntity
  8
Layer_1
 62
7
100
AcDbSpline
 70
8
 71
3
 72
8
 73
4
 74
0
 40
0
 40
0
 40
0
 40
0
 40
1
 40
1
 40
1
 40
1
 10
230.963251
 20
695.367291
 30
0.0
 10
230.963251
 20
694.121255
 30
0.0
 10
230.742039
 20
693.342483
 30
0.0
 10
230.299613
 20
693.030974
 30
0.0
  0
SPLINE
  5
11c
100
AcDbEntity
  8
Layer_1
 62
7
100
AcDbSpline
 70
8
 71
3
 72
8
 73
4
 74
0
 40
0
 40
0
 40
0
 40
0
 40
1
 40
1
 40
1
 40
1
 10
230.299613
 20
693.030974
 30
0.0
 10
229.857179
 20
692.750615
 30
0.0
 10
228.972315
 20
692.610436
 30
0.0
 10
227.645021
 20
692.610436
 30
0.0
  0
LWPOLYLINE
  5
11d
100
AcDbEntity
  8
Layer_1
 62
7
100
AcDbPolyline
 90
2
 70
0
 10
225.352421
 20
718.309935
 30
0.0
 10
225.352421
 20
702.750057
 30
0.0
  0
SPLINE
  5
11e
100
AcDbEntity
  8
Layer_1
 62
7
100
AcDbSpline
 70
8
 71
3
 72
8
 73
4
 74
0
 40
0
 40
0
 40
0
 40
0
 40
1
 40
1
 40
1
 40
1
 10
200.314828
 20
692.610436
 30
0.0
 10
198.866865
 20
692.610436
 30
0.0
 10
198.142884
 20
693.591690
 30
0.0
 10
198.142884
 20
695.554197
 30
0.0
  0
SPLINE
  5
11f
100
AcDbEntity
  8
Layer_1
 62
7
100
AcDbSpline
 70
8
 71
3
 72
8
 73
4
 74
0
 40
0
 40
0
 40
0
 40
0
 40
1
 40
1
 40
1
 40
1
 10
198.142884
 20
695.554197
 30
0.0
 10
198.142884
 20
697.111742
 30
0.0
 10
198.243437
 20
698.061845
 30
0.0
 10
198.444543
 20
698.404505
 30
0.0
  0
SPLINE
  5
120
100
AcDbEntity
  8
Layer_1
 62
7
100
AcDbSpline
 70
8
 71
3
 72
8
 73
4
 74
0
 40
0
 40
0
 40
0
 40
0
 40
1
 40
1
 40
1
 40
1
 10
198.444543
 20
698.404505
 30
0.0
 10
198.645648
 20
698.778316
 30
0.0
 10
199.329407
 20
699.105401
 30
0.0
 10
200.495818
 20
699.385759
 30
0.0
  0
SPLINE
  5
121
100
AcDbEntity
  8
Layer_1
 62
7
100
AcDbSpline
 70
8
 71
3
 72
8
 73
4
 74
0
 40
0
 40
0
 40
0
 40
0
 40
1
 40
1
 40
1
 40
1
 10
200.495818
 20
699.385759
 30
0.0
 10
201.541569
 20
699.634966
 30
0.0
 10
202.185105
 20
699.899749
 30
0.0
 10
202.426425
 20
700.180107
 30
0.0
  0
SPLINE
  5
122
100
AcDbEntity
  8
Layer_1
 62
7
100
AcDbSpline
 70
8
 71
3
 72
8
 73
4
 74
0
 40
0
 40
0
 40
0
 40
0
 40
1
 40
1
 40
1
 40
1
 10
202.426425
 20
700.180107
 30
0.0
 10
202.707976
 20
700.491616
 30
0.0
 10
202.848752
 20
701.005606
 30
0.0
 10
202.848752
 20
701.722077
 30
0.0
  0
LWPOLYLINE
  5
123
100
AcDbEntity
  8
Layer_1
 62
7
100
AcDbPolyline
 90
2
 70
0
 10
227.645021
 20
692.610436
 30
0.0
 10
200.314828
 20
692.610436
 30
0.0
  0
SPLINE
  5
124
100
AcDbEntity
  8
Layer_1
 62
7
100
AcDbSpline
 70
8
 71
3
 72
8
 73
4
 74
0
 40
0
 40
0
 40
0
 40
0
 40
1
 40
1
 40
1
 40
1
 10
202.848752
 20
758.167524
 30
0.0
 10
202.848752
 20
759.507007
 30
0.0
 10
201.782894
 20
760.581712
 30
0.0
 10
199.651177
 20
761.391639
 30
0.0
  0
SPLINE
  5
125
100
AcDbEntity
  8
Layer_1
 62
7
100
AcDbSpline
 70
8
 71
3
 72
8
 73
4
 74
0
 40
0
 40
0
 40
0
 40
0
 40
1
 40
1
 40
1
 40
1
 10
199.651177
 20
761.391639
 30
0.0
 10
198.524988
 20
761.858904
 30
0.0
 10
197.941783
 20
762.575373
 30
0.0
 10
197.901560
 20
763.541048
 30
0.0
  0
LWPOLYLINE
  5
126
100
AcDbEntity
  8
Layer_1
 62
7
100
AcDbPolyline
 90
2
 70
0
 10
202.848752
 20
701.722077
 30
0.0
 10
202.848752
 20
758.167524
 30
0.0
  0
SPLINE
  5
127
100
AcDbEntity
  8
Layer_1
 62
7
100
AcDbSpline
 70
8
 71
3
 72
8
 73
4
 74
0
 40
0
 40
0
 40
0
 40
0
 40
1
 40
1
 40
1
 40
1
 10
197.841252
 20
765.737187
 30
0.0
 10
197.841252
 20
766.671716
 30
0.0
 10
197.982028
 20
767.279160
 30
0.0
 10
198.263580
 20
767.559517
 30
0.0
  0
SPLINE
  5
128
100
AcDbEntity
  8
Layer_1
 62
7
100
AcDbSpline
 70
8
 71
3
 72
8
 73
4
 74
0
 40
0
 40
0
 40
0
 40
0
 40
1
 40
1
 40
1
 40
1
 10
198.263580
 20
767.559517
 30
0.0
 10
198.585345
 20
767.871027
 30
0.0
 10
199.269104
 20
768.026782
 30
0.0
 10
200.314855
 20
768.026782
 30
0.0
  0
LWPOLYLINE
  5
129
100
AcDbEntity
  8
Layer_1
 62
7
100
AcDbPolyline
 90
2
 70
0
 10
197.901560
 20
763.541048
 30
0.0
 10
197.841252
 20
765.737187
 30
0.0
  0
SPLINE
  5
12a
100
AcDbEntity
  8
Layer_1
 62
7
100
AcDbSpline
 70
8
 71
3
 72
8
 73
4
 74
0
 40
0
 40
0
 40
0
 40
0
 40
1
 40
1
 40
1
 40
1
 10
231.204616
 20
768.026782
 30
0.0
 10
240.093463
 20
768.026782
 30
0.0
 10
247.172363
 20
765.815068
 30
0.0
 10
252.441316
 20
761.391639
 30
0.0
  0
SPLINE
  5
12b
100
AcDbEntity
  8
Layer_1
 62
7
100
AcDbSpline
 70
8
 71
3
 72
8
 73
4
 74
0
 40
0
 40
0
 40
0
 40
0
 40
1
 40
1
 40
1
 40
1
 10
252.441316
 20
761.391639
 30
0.0
 10
257.750492
 20
756.999362
 30
0.0
 10
260.405080
 20
750.909360
 30
0.0
 10
260.405080
 20
743.121632
 30
0.0
  0
SPLINE
  5
12c
100
AcDbEntity
  8
Layer_1
 62
7
100
AcDbSpline
 70
8
 71
3
 72
8
 73
4
 74
0
 40
0
 40
0
 40
0
 40
0
 40
1
 40
1
 40
1
 40
1
 10
260.405080
 20
743.121632
 30
0.0
 10
260.405080
 20
738.729354
 30
0.0
 10
259.580551
 20
734.819915
 30
0.0
 10
257.931491
 20
731.393315
 30
0.0
  0
SPLINE
  5
12d
100
AcDbEntity
  8
Layer_1
 62
7
100
AcDbSpline
 70
8
 71
3
 72
8
 73
4
 74
0
 40
0
 40
0
 40
0
 40
0
 40
1
 40
1
 40
1
 40
1
 10
257.931491
 20
731.393315
 30
0.0
 10
256.322645
 20
727.966716
 30
0.0
 10
254.271370
 20
725.443492
 30
0.0
 10
251.777665
 20
723.823645
 30
0.0
  0
SPLINE
  5
12e
100
AcDbEntity
  8
Layer_1
 62
7
100
AcDbSpline
 70
8
 71
3
 72
8
 73
4
 74
0
 40
0
 40
0
 40
0
 40
0
 40
1
 40
1
 40
1
 40
1
 10
251.777665
 20
723.823645
 30
0.0
 10
249.324182
 20
722.203798
 30
0.0
 10
246.468488
 20
720.879884
 30
0.0
 10
243.210583
 20
719.851904
 30
0.0
  0
SPLINE
  5
12f
100
AcDbEntity
  8
Layer_1
 62
7
100
AcDbSpline
 70
8
 71
3
 72
8
 73
4
 74
0
 40
0
 40
0
 40
0
 40
0
 40
1
 40
1
 40
1
 40
1
 10
243.210583
 20
719.851904
 30
0.0
 10
239.992901
 20
718.823924
 30
0.0
 10
236.554006
 20
718.309935
 30
0.0
 10
232.893898
 20
718.309935
 30
0.0
  0
LWPOLYLINE
  5
130
100
AcDbEntity
  8
Layer_1
 62
7
100
AcDbPolyline
 90
2
 70
0
 10
200.314855
 20
768.026782
 30
0.0
 10
231.204616
 20
768.026782
 30
0.0
  0
LWPOLYLINE
  5
131
100
AcDbEntity
  8
Layer_1
 62
7
100
AcDbPolyline
 90
2
 70
0
 10
232.893898
 20
718.309935
 30
0.0
 10
225.352421
 20
718.309935
 30
0.0
  0
SPLINE
  5
132
100
AcDbEntity
  8
Layer_1
 62
7
100
AcDbSpline
 70
8
 71
3
 72
8
 73
4
 74
0
 40
0
 40
0
 40
0
 40
0
 40
1
 40
1
 40
1
 40
1
 10
229.575627
 20
723.683466
 30
0.0
 10
231.023590
 20
723.683466
 30
0.0
 10
232.310666
 20
724.290909
 30
0.0
 10
233.436854
 20
725.505794
 30
0.0
  0
SPLINE
  5
133
100
AcDbEntity
  8
Layer_1
 62
7
100
AcDbSpline
 70
8
 71
3
 72
8
 73
4
 74
0
 40
0
 40
0
 40
0
 40
0
 40
1
 40
1
 40
1
 40
1
 10
233.436854
 20
725.505794
 30
0.0
 10
234.603265
 20
726.751830
 30
0.0
 10
235.186471
 20
728.807790
 30
0.0
 10
235.186471
 20
731.673674
 30
0.0
  0
LWPOLYLINE
  5
134
100
AcDbEntity
  8
Layer_1
 62
7
100
AcDbPolyline
 90
3
 70
0
 10
225.352421
 20
762.840151
 30
0.0
 10
225.352421
 20
723.683466
 30
0.0
 10
229.575627
 20
723.683466
 30
0.0
  0
SPLINE
  5
135
100
AcDbEntity
  8
Layer_1
 62
7
100
AcDbSpline
 70
8
 71
3
 72
8
 73
4
 74
0
 40
0
 40
0
 40
0
 40
0
 40
1
 40
1
 40
1
 40
1
 10
235.186471
 20
754.990128
 30
0.0
 10
235.186471
 20
760.223477
 30
0.0
 10
232.934090
 20
762.840151
 30
0.0
 10
228.429327
 20
762.840151
 30
0.0
  0
LWPOLYLINE
  5
136
100
AcDbEntity
  8
Layer_1
 62
7
100
AcDbPolyline
 90
2
 70
0
 10
235.186471
 20
731.673674
 30
0.0
 10
235.186471
 20
754.990128
 30
0.0
  0
LWPOLYLINE
  5
137
100
AcDbEntity
  8
Layer_1
 62
7
100
AcDbPolyline
 90
2
 70
0
 10
228.429327
 20
762.840151
 30
0.0
 10
225.352421
 20
762.840151
 30
0.0
  0
SPLINE
  5
138
100
AcDbEntity
  8
Layer_1
 62
7
100
AcDbSpline
 70
8
 71
3
 72
8
 73
4
 74
0
 40
0
 40
0
 40
0
 40
0
 40
1
 40
1
 40
1
 40
1
 10
273.919327
 20
704.432206
 30
0.0
 10
273.919327
 20
704.338753
 30
0.0
 10
273.879122
 20
704.198574
 30
0.0
 10
273.798712
 20
704.011669
 30
0.0
  0
SPLINE
  5
139
100
AcDbEntity
  8
Layer_1
 62
7
100
AcDbSpline
 70
8
 71
3
 72
8
 73
4
 74
0
 40
0
 40
0
 40
0
 40
0
 40
1
 40
1
 40
1
 40
1
 10
273.798712
 20
704.011669
 30
0.0
 10
273.476946
 20
703.108292
 30
0.0
 10
273.316064
 20
702.298368
 30
0.0
 10
273.316064
 20
701.581897
 30
0.0
  0
SPLINE
  5
13a
100
AcDbEntity
  8
Layer_1
 62
7
100
AcDbSpline
 70
8
 71
3
 72
8
 73
4
 74
0
 40
0
 40
0
 40
0
 40
0
 40
1
 40
1
 40
1
 40
1
 10
273.316064
 20
701.581897
 30
0.0
 10
273.316064
 20
700.460465
 30
0.0
 10
274.261258
 20
699.510362
 30
0.0
 10
276.151646
 20
698.731589
 30
0.0
  0
SPLINE
  5
13b
100
AcDbEntity
  8
Layer_1
 62
7
100
AcDbSpline
 70
8
 71
3
 72
8
 73
4
 74
0
 40
0
 40
0
 40
0
 40
0
 40
1
 40
1
 40
1
 40
1
 10
276.151646
 20
698.731589
 30
0.0
 10
277.157174
 20
698.326628
 30
0.0
 10
277.780603
 20
697.906091
 30
0.0
 10
278.021932
 20
697.469978
 30
0.0
  0
SPLINE
  5
13c
100
AcDbEntity
  8
Layer_1
 62
7
100
AcDbSpline
 70
8
 71
3
 72
8
 73
4
 74
0
 40
0
 40
0
 40
0
 40
0
 40
1
 40
1
 40
1
 40
1
 10
278.021932
 20
697.469978
 30
0.0
 10
278.263251
 20
697.033865
 30
0.0
 10
278.383911
 20
696.317395
 30
0.0
 10
278.383911
 20
695.320566
 30
0.0
  0
SPLINE
  5
13d
100
AcDbEntity
  8
Layer_1
 62
7
100
AcDbSpline
 70
8
 71
3
 72
8
 73
4
 74
0
 40
0
 40
0
 40
0
 40
0
 40
1
 40
1
 40
1
 40
1
 10
278.383911
 20
695.320566
 30
0.0
 10
278.383911
 20
694.043378
 30
0.0
 10
278.283358
 20
693.264605
 30
0.0
 10
278.082253
 20
692.984247
 30
0.0
  0
SPLINE
  5
13e
100
AcDbEntity
  8
Layer_1
 62
7
100
AcDbSpline
 70
8
 71
3
 72
8
 73
4
 74
0
 40
0
 40
0
 40
0
 40
0
 40
1
 40
1
 40
1
 40
1
 10
278.082253
 20
692.984247
 30
0.0
 10
277.921370
 20
692.735040
 30
0.0
 10
277.499051
 20
692.610436
 30
0.0
 10
276.815297
 20
692.610436
 30
0.0
  0
LWPOLYLINE
  5
13f
100
AcDbEntity
  8
Layer_1
 62
7
100
AcDbPolyline
 90
3
 70
0
 10
289.665866
 20
708.731031
 30
0.0
 10
274.582979
 20
708.731031
 30
0.0
 10
273.919327
 20
704.432206
 30
0.0
  0
SPLINE
  5
140
100
AcDbEntity
  8
Layer_1
 62
7
100
AcDbSpline
 70
8
 71
3
 72
8
 73
4
 74
0
 40
0
 40
0
 40
0
 40
0
 40
1
 40
1
 40
1
 40
1
 10
260.887769
 20
692.610436
 30
0.0
 10
260.002900
 20
692.610436
 30
0.0
 10
259.560466
 20
693.326907
 30
0.0
 10
259.560466
 20
694.759849
 30
0.0
  0
SPLINE
  5
141
100
AcDbEntity
  8
Layer_1
 62
7
100
AcDbSpline
 70
8
 71
3
 72
8
 73
4
 74
0
 40
0
 40
0
 40
0
 40
0
 40
1
 40
1
 40
1
 40
1
 10
259.560466
 20
694.759849
 30
0.0
 10
259.560466
 20
696.473149
 30
0.0
 10
260.264336
 20
697.859365
 30
0.0
 10
261.672076
 20
698.918495
 30
0.0
  0
SPLINE
  5
142
100
AcDbEntity
  8
Layer_1
 62
7
100
AcDbSpline
 70
8
 71
3
 72
8
 73
4
 74
0
 40
0
 40
0
 40
0
 40
0
 40
1
 40
1
 40
1
 40
1
 10
261.672076
 20
698.918495
 30
0.0
 10
262.999370
 20
699.884173
 30
0.0
 10
263.763570
 20
700.912153
 30
0.0
 10
263.964675
 20
702.002434
 30
0.0
  0
LWPOLYLINE
  5
143
100
AcDbEntity
  8
Layer_1
 62
7
100
AcDbPolyline
 90
2
 70
0
 10
276.815297
 20
692.610436
 30
0.0
 10
260.887769
 20
692.610436
 30
0.0
  0
SPLINE
  5
144
100
AcDbEntity
  8
Layer_1
 62
7
100
AcDbSpline
 70
8
 71
3
 72
8
 73
4
 74
0
 40
0
 40
0
 40
0
 40
0
 40
1
 40
1
 40
1
 40
1
 10
275.126015
 20
756.999362
 30
0.0
 10
275.327121
 20
757.840435
 30
0.0
 10
275.427673
 20
758.572481
 30
0.0
 10
275.427673
 20
759.195501
 30
0.0
  0
SPLINE
  5
145
100
AcDbEntity
  8
Layer_1
 62
7
100
AcDbSpline
 70
8
 71
3
 72
8
 73
4
 74
0
 40
0
 40
0
 40
0
 40
0
 40
1
 40
1
 40
1
 40
1
 10
275.427673
 20
759.195501
 30
0.0
 10
275.427673
 20
760.161176
 30
0.0
 10
274.562921
 20
761.017824
 30
0.0
 10
272.833415
 20
761.765446
 30
0.0
  0
SPLINE
  5
146
100
AcDbEntity
  8
Layer_1
 62
7
100
AcDbSpline
 70
8
 71
3
 72
8
 73
4
 74
0
 40
0
 40
0
 40
0
 40
0
 40
1
 40
1
 40
1
 40
1
 10
272.833415
 20
761.765446
 30
0.0
 10
272.028992
 20
762.139261
 30
0.0
 10
271.626781
 20
762.964761
 30
0.0
 10
271.626781
 20
764.241946
 30
0.0
  0
SPLINE
  5
147
100
AcDbEntity
  8
Layer_1
 62
7
100
AcDbSpline
 70
8
 71
3
 72
8
 73
4
 74
0
 40
0
 40
0
 40
0
 40
0
 40
1
 40
1
 40
1
 40
1
 10
271.626781
 20
764.241946
 30
0.0
 10
271.626781
 20
765.955243
 30
0.0
 10
271.747445
 20
767.014375
 30
0.0
 10
271.988774
 20
767.419342
 30
0.0
  0
SPLINE
  5
148
100
AcDbEntity
  8
Layer_1
 62
7
100
AcDbSpline
 70
8
 71
3
 72
8
 73
4
 74
0
 40
0
 40
0
 40
0
 40
0
 40
1
 40
1
 40
1
 40
1
 10
271.988774
 20
767.419342
 30
0.0
 10
272.230094
 20
767.824302
 30
0.0
 10
272.873629
 20
768.026782
 30
0.0
 10
273.919381
 20
768.026782
 30
0.0
  0
LWPOLYLINE
  5
149
100
AcDbEntity
  8
Layer_1
 62
7
100
AcDbPolyline
 90
2
 70
0
 10
263.964675
 20
702.002434
 30
0.0
 10
275.126015
 20
756.999362
 30
0.0
  0
SPLINE
  5
14a
100
AcDbEntity
  8
Layer_1
 62
7
100
AcDbSpline
 70
8
 71
3
 72
8
 73
4
 74
0
 40
0
 40
0
 40
0
 40
0
 40
1
 40
1
 40
1
 40
1
 10
296.966032
 20
768.026782
 30
0.0
 10
298.373772
 20
768.026782
 30
0.0
 10
299.359189
 20
767.512792
 30
0.0
 10
299.922283
 20
766.484812
 30
0.0
  0
SPLINE
  5
14b
100
AcDbEntity
  8
Layer_1
 62
7
100
AcDbSpline
 70
8
 71
3
 72
8
 73
4
 74
0
 40
0
 40
0
 40
0
 40
0
 40
1
 40
1
 40
1
 40
1
 10
299.922283
 20
766.484812
 30
0.0
 10
300.485378
 20
765.456833
 30
0.0
 10
301.048472
 20
763.213966
 30
0.0
 10
301.611566
 20
759.756212
 30
0.0
  0
SPLINE
  5
14c
100
AcDbEntity
  8
Layer_1
 62
7
100
AcDbSpline
 70
8
 71
3
 72
8
 73
4
 74
0
 40
0
 40
0
 40
0
 40
0
 40
1
 40
1
 40
1
 40
1
 10
301.611566
 20
759.756212
 30
0.0
 10
301.852895
 20
758.416722
 30
0.0
 10
302.094219
 20
757.092809
 30
0.0
 10
302.335539
 20
755.784472
 30
0.0
  0
LWPOLYLINE
  5
14d
100
AcDbEntity
  8
Layer_1
 62
7
100
AcDbPolyline
 90
2
 70
0
 10
273.919381
 20
768.026782
 30
0.0
 10
296.966032
 20
768.026782
 30
0.0
  0
SPLINE
  5
14e
100
AcDbEntity
  8
Layer_1
 62
7
100
AcDbSpline
 70
8
 71
3
 72
8
 73
4
 74
0
 40
0
 40
0
 40
0
 40
0
 40
1
 40
1
 40
1
 40
1
 10
312.229923
 20
704.432206
 30
0.0
 10
312.712571
 20
701.940134
 30
0.0
 10
313.899089
 20
700.039928
 30
0.0
 10
315.789478
 20
698.731589
 30
0.0
  0
SPLINE
  5
14f
100
AcDbEntity
  8
Layer_1
 62
7
100
AcDbSpline
 70
8
 71
3
 72
8
 73
4
 74
0
 40
0
 40
0
 40
0
 40
0
 40
1
 40
1
 40
1
 40
1
 10
315.789478
 20
698.731589
 30
0.0
 10
316.312358
 20
698.388930
 30
0.0
 10
316.654239
 20
698.108572
 30
0.0
 10
316.815122
 20
697.890515
 30
0.0
  0
SPLINE
  5
150
100
AcDbEntity
  8
Layer_1
 62
7
100
AcDbSpline
 70
8
 71
3
 72
8
 73
4
 74
0
 40
0
 40
0
 40
0
 40
0
 40
1
 40
1
 40
1
 40
1
 10
316.815122
 20
697.890515
 30
0.0
 10
316.976005
 20
697.703610
 30
0.0
 10
317.056446
 20
697.096167
 30
0.0
 10
317.056446
 20
696.068187
 30
0.0
  0
SPLINE
  5
151
100
AcDbEntity
  8
Layer_1
 62
7
100
AcDbSpline
 70
8
 71
3
 72
8
 73
4
 74
0
 40
0
 40
0
 40
0
 40
0
 40
1
 40
1
 40
1
 40
1
 10
317.056446
 20
696.068187
 30
0.0
 10
317.056446
 20
694.479491
 30
0.0
 10
316.915671
 20
693.498238
 30
0.0
 10
316.634119
 20
693.124427
 30
0.0
  0
SPLINE
  5
152
100
AcDbEntity
  8
Layer_1
 62
7
100
AcDbSpline
 70
8
 71
3
 72
8
 73
4
 74
0
 40
0
 40
0
 40
0
 40
0
 40
1
 40
1
 40
1
 40
1
 10
316.634119
 20
693.124427
 30
0.0
 10
316.352576
 20
692.781766
 30
0.0
 10
315.749264
 20
692.610436
 30
0.0
 10
314.824181
 20
692.610436
 30
0.0
  0
LWPOLYLINE
  5
153
100
AcDbEntity
  8
Layer_1
 62
7
100
AcDbPolyline
 90
2
 70
0
 10
302.335539
 20
755.784472
 30
0.0
 10
312.229923
 20
704.432206
 30
0.0
  0
SPLINE
  5
154
100
AcDbEntity
  8
Layer_1
 62
7
100
AcDbSpline
 70
8
 71
3
 72
8
 73
4
 74
0
 40
0
 40
0
 40
0
 40
0
 40
1
 40
1
 40
1
 40
1
 10
287.976637
 20
692.610436
 30
0.0
 10
287.172214
 20
692.610436
 30
0.0
 10
286.770003
 20
693.202304
 30
0.0
 10
286.770003
 20
694.386038
 30
0.0
  0
SPLINE
  5
155
100
AcDbEntity
  8
Layer_1
 62
7
100
AcDbSpline
 70
8
 71
3
 72
8
 73
4
 74
0
 40
0
 40
0
 40
0
 40
0
 40
1
 40
1
 40
1
 40
1
 10
286.770003
 20
694.386038
 30
0.0
 10
286.770003
 20
695.881281
 30
0.0
 10
286.870556
 20
696.815809
 30
0.0
 10
287.071661
 20
697.189620
 30
0.0
  0
SPLINE
  5
156
100
AcDbEntity
  8
Layer_1
 62
7
100
AcDbSpline
 70
8
 71
3
 72
8
 73
4
 74
0
 40
0
 40
0
 40
0
 40
0
 40
1
 40
1
 40
1
 40
1
 10
287.071661
 20
697.189620
 30
0.0
 10
287.272767
 20
697.563431
 30
0.0
 10
287.855973
 20
697.999544
 30
0.0
 10
288.821278
 20
698.497958
 30
0.0
  0
SPLINE
  5
157
100
AcDbEntity
  8
Layer_1
 62
7
100
AcDbSpline
 70
8
 71
3
 72
8
 73
4
 74
0
 40
0
 40
0
 40
0
 40
0
 40
1
 40
1
 40
1
 40
1
 10
288.821278
 20
698.497958
 30
0.0
 10
290.229009
 20
699.183278
 30
0.0
 10
290.932875
 20
700.055503
 30
0.0
 10
290.932875
 20
701.114634
 30
0.0
  0
SPLINE
  5
158
100
AcDbEntity
  8
Layer_1
 62
7
100
AcDbSpline
 70
8
 71
3
 72
8
 73
4
 74
0
 40
0
 40
0
 40
0
 40
0
 40
1
 40
1
 40
1
 40
1
 10
290.932875
 20
701.114634
 30
0.0
 10
290.932875
 20
702.204916
 30
0.0
 10
290.510556
 20
704.743715
 30
0.0
 10
289.665920
 20
708.731031
 30
0.0
  0
LWPOLYLINE
  5
159
100
AcDbEntity
  8
Layer_1
 62
7
100
AcDbPolyline
 90
2
 70
0
 10
314.824181
 20
692.610436
 30
0.0
 10
287.976637
 20
692.610436
 30
0.0
  0
LWPOLYLINE
  5
15a
100
AcDbEntity
  8
Layer_1
 62
7
100
AcDbPolyline
 90
1
 70
1
 10
289.665920
 20
708.731031
 30
0.0
  0
LWPOLYLINE
  5
15b
100
AcDbEntity
  8
Layer_1
 62
7
100
AcDbPolyline
 90
3
 70
1
 10
282.426074
 20
750.410944
 30
0.0
 10
275.729278
 20
714.104562
 30
0.0
 10
289.002214
 20
714.104562
 30
0.0
  0
SPLINE
  5
15c
100
AcDbEntity
  8
Layer_1
 62
7
100
AcDbSpline
 70
8
 71
3
 72
8
 73
4
 74
0
 40
0
 40
0
 40
0
 40
0
 40
1
 40
1
 40
1
 40
1
 10
338.715420
 20
702.376245
 30
0.0
 10
338.715420
 20
701.005605
 30
0.0
 10
339.720949
 20
699.977626
 30
0.0
 10
341.732006
 20
699.292306
 30
0.0
  0
SPLINE
  5
15d
100
AcDbEntity
  8
Layer_1
 62
7
100
AcDbSpline
 70
8
 71
3
 72
8
 73
4
 74
0
 40
0
 40
0
 40
0
 40
0
 40
1
 40
1
 40
1
 40
1
 10
341.732006
 20
699.292306
 30
0.0
 10
343.421288
 20
698.700439
 30
0.0
 10
344.265930
 20
697.859364
 30
0.0
 10
344.265930
 20
696.769082
 30
0.0
  0
SPLINE
  5
15e
100
AcDbEntity
  8
Layer_1
 62
7
100
AcDbSpline
 70
8
 71
3
 72
8
 73
4
 74
0
 40
0
 40
0
 40
0
 40
0
 40
1
 40
1
 40
1
 40
1
 10
344.265930
 20
696.769082
 30
0.0
 10
344.265930
 20
694.495066
 30
0.0
 10
344.185488
 20
693.233454
 30
0.0
 10
344.024606
 20
692.984247
 30
0.0
  0
SPLINE
  5
15f
100
AcDbEntity
  8
Layer_1
 62
7
100
AcDbSpline
 70
8
 71
3
 72
8
 73
4
 74
0
 40
0
 40
0
 40
0
 40
0
 40
1
 40
1
 40
1
 40
1
 10
344.024606
 20
692.984247
 30
0.0
 10
343.903937
 20
692.735040
 30
0.0
 10
343.320731
 20
692.610436
 30
0.0
 10
342.274989
 20
692.610436
 30
0.0
  0
LWPOLYLINE
  5
160
100
AcDbEntity
  8
Layer_1
 62
7
100
AcDbPolyline
 90
2
 70
0
 10
338.715420
 20
735.365056
 30
0.0
 10
338.715420
 20
702.376245
 30
0.0
  0
SPLINE
  5
161
100
AcDbEntity
  8
Layer_1
 62
7
100
AcDbSpline
 70
8
 71
3
 72
8
 73
4
 74
0
 40
0
 40
0
 40
0
 40
0
 40
1
 40
1
 40
1
 40
1
 10
326.226791
 20
692.610436
 30
0.0
 10
325.422368
 20
692.610436
 30
0.0
 10
324.919604
 20
692.844068
 30
0.0
 10
324.718498
 20
693.311331
 30
0.0
  0
SPLINE
  5
162
100
AcDbEntity
  8
Layer_1
 62
7
100
AcDbSpline
 70
8
 71
3
 72
8
 73
4
 74
0
 40
0
 40
0
 40
0
 40
0
 40
1
 40
1
 40
1
 40
1
 10
324.718498
 20
693.311331
 30
0.0
 10
324.517393
 20
693.809747
 30
0.0
 10
324.416840
 20
695.009057
 30
0.0
 10
324.416840
 20
696.909262
 30
0.0
  0
SPLINE
  5
163
100
AcDbEntity
  8
Layer_1
 62
7
100
AcDbSpline
 70
8
 71
3
 72
8
 73
4
 74
0
 40
0
 40
0
 40
0
 40
0
 40
1
 40
1
 40
1
 40
1
 10
324.416840
 20
696.909262
 30
0.0
 10
324.416840
 20
697.781487
 30
0.0
 10
324.959827
 20
698.388930
 30
0.0
 10
326.045801
 20
698.731589
 30
0.0
  0
SPLINE
  5
164
100
AcDbEntity
  8
Layer_1
 62
7
100
AcDbSpline
 70
8
 71
3
 72
8
 73
4
 74
0
 40
0
 40
0
 40
0
 40
0
 40
1
 40
1
 40
1
 40
1
 10
326.045801
 20
698.731589
 30
0.0
 10
328.137295
 20
699.448061
 30
0.0
 10
329.183042
 20
700.257984
 30
0.0
 10
329.183042
 20
701.161360
 30
0.0
  0
LWPOLYLINE
  5
165
100
AcDbEntity
  8
Layer_1
 62
7
100
AcDbPolyline
 90
2
 70
0
 10
342.274989
 20
692.610436
 30
0.0
 10
326.226791
 20
692.610436
 30
0.0
  0
SPLINE
  5
166
100
AcDbEntity
  8
Layer_1
 62
7
100
AcDbSpline
 70
8
 71
3
 72
8
 73
4
 74
0
 40
0
 40
0
 40
0
 40
0
 40
1
 40
1
 40
1
 40
1
 10
329.183042
 20
756.391922
 30
0.0
 10
329.183042
 20
757.731405
 30
0.0
 10
329.022155
 20
758.728232
 30
0.0
 10
328.700381
 20
759.382404
 30
0.0
  0
SPLINE
  5
167
100
AcDbEntity
  8
Layer_1
 62
7
100
AcDbSpline
 70
8
 71
3
 72
8
 73
4
 74
0
 40
0
 40
0
 40
0
 40
0
 40
1
 40
1
 40
1
 40
1
 10
328.700381
 20
759.382404
 30
0.0
 10
328.378615
 20
760.067722
 30
0.0
 10
327.654638
 20
760.628437
 30
0.0
 10
326.528450
 20
761.064549
 30
0.0
  0
SPLINE
  5
168
100
AcDbEntity
  8
Layer_1
 62
7
100
AcDbSpline
 70
8
 71
3
 72
8
 73
4
 74
0
 40
0
 40
0
 40
0
 40
0
 40
1
 40
1
 40
1
 40
1
 10
326.528450
 20
761.064549
 30
0.0
 10
325.522921
 20
761.438364
 30
0.0
 10
324.839163
 20
761.843327
 30
0.0
 10
324.477174
 20
762.279440
 30
0.0
  0
SPLINE
  5
169
100
AcDbEntity
  8
Layer_1
 62
7
100
AcDbSpline
 70
8
 71
3
 72
8
 73
4
 74
0
 40
0
 40
0
 40
0
 40
0
 40
1
 40
1
 40
1
 40
1
 10
324.477174
 20
762.279440
 30
0.0
 10
324.155409
 20
762.715552
 30
0.0
 10
323.994526
 20
763.541052
 30
0.0
 10
323.994526
 20
764.755939
 30
0.0
  0
SPLINE
  5
16a
100
AcDbEntity
  8
Layer_1
 62
7
100
AcDbSpline
 70
8
 71
3
 72
8
 73
4
 74
0
 40
0
 40
0
 40
0
 40
0
 40
1
 40
1
 40
1
 40
1
 10
323.994526
 20
764.755939
 30
0.0
 10
323.994526
 20
766.936501
 30
0.0
 10
324.738614
 20
768.026782
 30
0.0
 10
326.226791
 20
768.026782
 30
0.0
  0
LWPOLYLINE
  5
16b
100
AcDbEntity
  8
Layer_1
 62
7
100
AcDbPolyline
 90
2
 70
0
 10
329.183042
 20
701.161360
 30
0.0
 10
329.183042
 20
756.391922
 30
0.0
  0
SPLINE
  5
16c
100
AcDbEntity
  8
Layer_1
 62
7
100
AcDbSpline
 70
8
 71
3
 72
8
 73
4
 74
0
 40
0
 40
0
 40
0
 40
0
 40
1
 40
1
 40
1
 40
1
 10
363.270365
 20
758.447875
 30
0.0
 10
363.270365
 20
759.943119
 30
0.0
 10
362.284952
 20
761.002251
 30
0.0
 10
360.314127
 20
761.625271
 30
0.0
  0
SPLINE
  5
16d
100
AcDbEntity
  8
Layer_1
 62
7
100
AcDbSpline
 70
8
 71
3
 72
8
 73
4
 74
0
 40
0
 40
0
 40
0
 40
0
 40
1
 40
1
 40
1
 40
1
 10
360.314127
 20
761.625271
 30
0.0
 10
359.147716
 20
762.030231
 30
0.0
 10
358.383516
 20
762.481920
 30
0.0
 10
358.021527
 20
762.980337
 30
0.0
  0
SPLINE
  5
16e
100
AcDbEntity
  8
Layer_1
 62
7
100
AcDbSpline
 70
8
 71
3
 72
8
 73
4
 74
0
 40
0
 40
0
 40
0
 40
0
 40
1
 40
1
 40
1
 40
1
 10
358.021527
 20
762.980337
 30
0.0
 10
357.699753
 20
763.509899
 30
0.0
 10
357.538866
 20
764.522303
 30
0.0
 10
357.538866
 20
766.017548
 30
0.0
  0
SPLINE
  5
16f
100
AcDbEntity
  8
Layer_1
 62
7
100
AcDbSpline
 70
8
 71
3
 72
8
 73
4
 74
0
 40
0
 40
0
 40
0
 40
0
 40
1
 40
1
 40
1
 40
1
 10
357.538866
 20
766.017548
 30
0.0
 10
357.538866
 20
766.952077
 30
0.0
 10
357.659530
 20
767.512792
 30
0.0
 10
357.900859
 20
767.699692
 30
0.0
  0
SPLINE
  5
170
100
AcDbEntity
  8
Layer_1
 62
7
100
AcDbSpline
 70
8
 71
3
 72
8
 73
4
 74
0
 40
0
 40
0
 40
0
 40
0
 40
1
 40
1
 40
1
 40
1
 10
357.900859
 20
767.699692
 30
0.0
 10
358.142187
 20
767.917752
 30
0.0
 10
358.604729
 20
768.026782
 30
0.0
 10
359.288483
 20
768.026782
 30
0.0
  0
LWPOLYLINE
  5
171
100
AcDbEntity
  8
Layer_1
 62
7
100
AcDbPolyline
 90
4
 70
0
 10
326.226791
 20
768.026782
 30
0.0
 10
342.998961
 20
768.026782
 30
0.0
 10
363.270365
 20
731.626947
 30
0.0
 10
363.270365
 20
758.447875
 30
0.0
  0
SPLINE
  5
172
100
AcDbEntity
  8
Layer_1
 62
7
100
AcDbSpline
 70
8
 71
3
 72
8
 73
4
 74
0
 40
0
 40
0
 40
0
 40
0
 40
1
 40
1
 40
1
 40
1
 10
375.939997
 20
768.026782
 30
0.0
 10
376.865080
 20
767.933332
 30
0.0
 10
377.327621
 20
766.905352
 30
0.0
 10
377.327621
 20
764.942843
 30
0.0
  0
SPLINE
  5
173
100
AcDbEntity
  8
Layer_1
 62
7
100
AcDbSpline
 70
8
 71
3
 72
8
 73
4
 74
0
 40
0
 40
0
 40
0
 40
0
 40
1
 40
1
 40
1
 40
1
 10
377.327621
 20
764.942843
 30
0.0
 10
377.327621
 20
763.790260
 30
0.0
 10
377.227068
 20
763.058214
 30
0.0
 10
377.025963
 20
762.746705
 30
0.0
  0
SPLINE
  5
174
100
AcDbEntity
  8
Layer_1
 62
7
100
AcDbSpline
 70
8
 71
3
 72
8
 73
4
 74
0
 40
0
 40
0
 40
0
 40
0
 40
1
 40
1
 40
1
 40
1
 10
377.025963
 20
762.746705
 30
0.0
 10
376.865080
 20
762.435195
 30
0.0
 10
376.462868
 20
762.170410
 30
0.0
 10
375.819328
 20
761.952350
 30
0.0
  0
SPLINE
  5
175
100
AcDbEntity
  8
Layer_1
 62
7
100
AcDbSpline
 70
8
 71
3
 72
8
 73
4
 74
0
 40
0
 40
0
 40
0
 40
0
 40
1
 40
1
 40
1
 40
1
 10
375.819328
 20
761.952350
 30
0.0
 10
374.411597
 20
761.516238
 30
0.0
 10
373.526738
 20
761.095702
 30
0.0
 10
373.164749
 20
760.690742
 30
0.0
  0
SPLINE
  5
176
100
AcDbEntity
  8
Layer_1
 62
7
100
AcDbSpline
 70
8
 71
3
 72
8
 73
4
 74
0
 40
0
 40
0
 40
0
 40
0
 40
1
 40
1
 40
1
 40
1
 10
373.164749
 20
760.690742
 30
0.0
 10
372.802761
 20
760.285782
 30
0.0
 10
372.621767
 20
759.725067
 30
0.0
 10
372.621767
 20
759.008597
 30
0.0
  0
LWPOLYLINE
  5
177
100
AcDbEntity
  8
Layer_1
 62
7
100
AcDbPolyline
 90
2
 70
0
 10
359.288483
 20
768.026782
 30
0.0
 10
375.939997
 20
768.026782
 30
0.0
  0
LWPOLYLINE
  5
178
100
AcDbEntity
  8
Layer_1
 62
7
100
AcDbPolyline
 90
4
 70
0
 10
372.621767
 20
759.008597
 30
0.0
 10
372.621767
 20
692.610436
 30
0.0
 10
362.365389
 20
692.610436
 30
0.0
 10
338.715420
 20
735.365056
 30
0.0
  0
SPLINE
  5
179
100
AcDbEntity
  8
Layer_1
 62
7
100
AcDbSpline
 70
8
 71
3
 72
8
 73
4
 74
0
 40
0
 40
0
 40
0
 40
0
 40
1
 40
1
 40
1
 40
1
 10
393.798132
 20
762.793433
 30
0.0
 10
392.913264
 20
762.793433
 30
0.0
 10
392.189282
 20
762.326168
 30
0.0
 10
391.626188
 20
761.391639
 30
0.0
  0
SPLINE
  5
17a
100
AcDbEntity
  8
Layer_1
 62
7
100
AcDbSpline
 70
8
 71
3
 72
8
 73
4
 74
0
 40
0
 40
0
 40
0
 40
0
 40
1
 40
1
 40
1
 40
1
 10
391.626188
 20
761.391639
 30
0.0
 10
391.063094
 20
760.488262
 30
0.0
 10
390.479893
 20
758.011766
 30
0.0
 10
389.876585
 20
753.962152
 30
0.0
  0
SPLINE
  5
17b
100
AcDbEntity
  8
Layer_1
 62
7
100
AcDbSpline
 70
8
 71
3
 72
8
 73
4
 74
0
 40
0
 40
0
 40
0
 40
0
 40
1
 40
1
 40
1
 40
1
 10
389.876585
 20
753.962152
 30
0.0
 10
389.595033
 20
752.186547
 30
0.0
 10
389.152599
 20
751.065113
 30
0.0
 10
388.549282
 20
750.597849
 30
0.0
  0
SPLINE
  5
17c
100
AcDbEntity
  8
Layer_1
 62
7
100
AcDbSpline
 70
8
 71
3
 72
8
 73
4
 74
0
 40
0
 40
0
 40
0
 40
0
 40
1
 40
1
 40
1
 40
1
 10
388.549282
 20
750.597849
 30
0.0
 10
387.945965
 20
750.161736
 30
0.0
 10
386.739335
 20
749.943680
 30
0.0
 10
384.929393
 20
749.943680
 30
0.0
  0
SPLINE
  5
17d
100
AcDbEntity
  8
Layer_1
 62
7
100
AcDbSpline
 70
8
 71
3
 72
8
 73
4
 74
0
 40
0
 40
0
 40
0
 40
0
 40
1
 40
1
 40
1
 40
1
 10
384.929393
 20
749.943680
 30
0.0
 10
383.199887
 20
749.943680
 30
0.0
 10
382.073699
 20
750.099434
 30
0.0
 10
381.550827
 20
750.410944
 30
0.0
  0
SPLINE
  5
17e
100
AcDbEntity
  8
Layer_1
 62
7
100
AcDbSpline
 70
8
 71
3
 72
8
 73
4
 74
0
 40
0
 40
0
 40
0
 40
0
 40
1
 40
1
 40
1
 40
1
 10
381.550827
 20
750.410944
 30
0.0
 10
381.068170
 20
750.753604
 30
0.0
 10
380.826842
 20
751.407773
 30
0.0
 10
380.826842
 20
752.373450
 30
0.0
  0
SPLINE
  5
17f
100
AcDbEntity
  8
Layer_1
 62
7
100
AcDbSpline
 70
8
 71
3
 72
8
 73
4
 74
0
 40
0
 40
0
 40
0
 40
0
 40
1
 40
1
 40
1
 40
1
 10
380.826842
 20
752.373450
 30
0.0
 10
380.826842
 20
752.934167
 30
0.0
 10
380.846944
 20
753.494883
 30
0.0
 10
380.887149
 20
754.055598
 30
0.0
  0
LWPOLYLINE
  5
180
100
AcDbEntity
  8
Layer_1
 62
7
100
AcDbPolyline
 90
2
 70
0
 10
396.513046
 20
762.793433
 30
0.0
 10
393.798132
 20
762.793433
 30
0.0
  0
SPLINE
  5
181
100
AcDbEntity
  8
Layer_1
 62
7
100
AcDbSpline
 70
8
 71
3
 72
8
 73
4
 74
0
 40
0
 40
0
 40
0
 40
0
 40
1
 40
1
 40
1
 40
1
 10
381.611122
 20
764.942843
 30
0.0
 10
381.691532
 20
766.220028
 30
0.0
 10
381.973083
 20
767.045527
 30
0.0
 10
382.455776
 20
767.419342
 30
0.0
  0
SPLINE
  5
182
100
AcDbEntity
  8
Layer_1
 62
7
100
AcDbSpline
 70
8
 71
3
 72
8
 73
4
 74
0
 40
0
 40
0
 40
0
 40
0
 40
1
 40
1
 40
1
 40
1
 10
382.455776
 20
767.419342
 30
0.0
 10
382.938425
 20
767.824302
 30
0.0
 10
384.145054
 20
768.026782
 30
0.0
 10
386.075666
 20
768.026782
 30
0.0
  0
LWPOLYLINE
  5
183
100
AcDbEntity
  8
Layer_1
 62
7
100
AcDbPolyline
 90
2
 70
0
 10
380.887149
 20
754.055598
 30
0.0
 10
381.611122
 20
764.942843
 30
0.0
  0
SPLINE
  5
184
100
AcDbEntity
  8
Layer_1
 62
7
100
AcDbSpline
 70
8
 71
3
 72
8
 73
4
 74
0
 40
0
 40
0
 40
0
 40
0
 40
1
 40
1
 40
1
 40
1
 10
430.298697
 20
768.026782
 30
0.0
 10
431.585768
 20
768.026782
 30
0.0
 10
432.370079
 20
767.902179
 30
0.0
 10
432.651631
 20
767.652974
 30
0.0
  0
SPLINE
  5
185
100
AcDbEntity
  8
Layer_1
 62
7
100
AcDbSpline
 70
8
 71
3
 72
8
 73
4
 74
0
 40
0
 40
0
 40
0
 40
0
 40
1
 40
1
 40
1
 40
1
 10
432.651631
 20
767.652974
 30
0.0
 10
432.933173
 20
767.403762
 30
0.0
 10
433.154386
 20
766.500385
 30
0.0
 10
433.315269
 20
764.942843
 30
0.0
  0
LWPOLYLINE
  5
186
100
AcDbEntity
  8
Layer_1
 62
7
100
AcDbPolyline
 90
2
 70
0
 10
386.075666
 20
768.026782
 30
0.0
 10
430.298697
 20
768.026782
 30
0.0
  0
SPLINE
  5
187
100
AcDbEntity
  8
Layer_1
 62
7
100
AcDbSpline
 70
8
 71
3
 72
8
 73
4
 74
0
 40
0
 40
0
 40
0
 40
0
 40
1
 40
1
 40
1
 40
1
 10
434.340913
 20
755.317207
 30
0.0
 10
434.421323
 20
754.569592
 30
0.0
 10
434.461528
 20
753.806397
 30
0.0
 10
434.461528
 20
753.027622
 30
0.0
  0
SPLINE
  5
188
100
AcDbEntity
  8
Layer_1
 62
7
100
AcDbSpline
 70
8
 71
3
 72
8
 73
4
 74
0
 40
0
 40
0
 40
0
 40
0
 40
1
 40
1
 40
1
 40
1
 10
434.461528
 20
753.027622
 30
0.0
 10
434.461528
 20
752.093093
 30
0.0
 10
434.300645
 20
751.376622
 30
0.0
 10
433.978880
 20
750.878207
 30
0.0
  0
SPLINE
  5
189
100
AcDbEntity
  8
Layer_1
 62
7
100
AcDbSpline
 70
8
 71
3
 72
8
 73
4
 74
0
 40
0
 40
0
 40
0
 40
0
 40
1
 40
1
 40
1
 40
1
 10
433.978880
 20
750.878207
 30
0.0
 10
433.697337
 20
750.379793
 30
0.0
 10
432.752143
 20
750.130586
 30
0.0
 10
431.143298
 20
750.130586
 30
0.0
  0
SPLINE
  5
18a
100
AcDbEntity
  8
Layer_1
 62
7
100
AcDbSpline
 70
8
 71
3
 72
8
 73
4
 74
0
 40
0
 40
0
 40
0
 40
0
 40
1
 40
1
 40
1
 40
1
 10
431.143298
 20
750.130586
 30
0.0
 10
429.092027
 20
750.130586
 30
0.0
 10
427.764733
 20
750.286340
 30
0.0
 10
427.161415
 20
750.597849
 30
0.0
  0
SPLINE
  5
18b
100
AcDbEntity
  8
Layer_1
 62
7
100
AcDbSpline
 70
8
 71
3
 72
8
 73
4
 74
0
 40
0
 40
0
 40
0
 40
0
 40
1
 40
1
 40
1
 40
1
 10
427.161415
 20
750.597849
 30
0.0
 10
426.598321
 20
750.909359
 30
0.0
 10
426.135780
 20
751.890610
 30
0.0
 10
425.773791
 20
753.541605
 30
0.0
  0
SPLINE
  5
18c
100
AcDbEntity
  8
Layer_1
 62
7
100
AcDbSpline
 70
8
 71
3
 72
8
 73
4
 74
0
 40
0
 40
0
 40
0
 40
0
 40
1
 40
1
 40
1
 40
1
 10
425.773791
 20
753.541605
 30
0.0
 10
425.130251
 20
756.251737
 30
0.0
 10
424.426381
 20
758.463451
 30
0.0
 10
423.662182
 20
760.176748
 30
0.0
  0
SPLINE
  5
18d
100
AcDbEntity
  8
Layer_1
 62
7
100
AcDbSpline
 70
8
 71
3
 72
8
 73
4
 74
0
 40
0
 40
0
 40
0
 40
0
 40
1
 40
1
 40
1
 40
1
 10
423.662182
 20
760.176748
 30
0.0
 10
422.897982
 20
761.921205
 30
0.0
 10
421.952788
 20
762.793433
 30
0.0
 10
420.826599
 20
762.793433
 30
0.0
  0
LWPOLYLINE
  5
18e
100
AcDbEntity
  8
Layer_1
 62
7
100
AcDbPolyline
 90
2
 70
0
 10
433.315269
 20
764.942843
 30
0.0
 10
434.340913
 20
755.317207
 30
0.0
  0
SPLINE
  5
18f
100
AcDbEntity
  8
Layer_1
 62
7
100
AcDbSpline
 70
8
 71
3
 72
8
 73
4
 74
0
 40
0
 40
0
 40
0
 40
0
 40
1
 40
1
 40
1
 40
1
 10
419.016648
 20
702.796782
 30
0.0
 10
419.016648
 20
701.083483
 30
0.0
 10
419.981954
 20
699.899749
 30
0.0
 10
421.912565
 20
699.245580
 30
0.0
  0
SPLINE
  5
190
100
AcDbEntity
  8
Layer_1
 62
7
100
AcDbSpline
 70
8
 71
3
 72
8
 73
4
 74
0
 40
0
 40
0
 40
0
 40
0
 40
1
 40
1
 40
1
 40
1
 10
421.912565
 20
699.245580
 30
0.0
 10
422.716988
 20
698.965221
 30
0.0
 10
423.239863
 20
698.622562
 30
0.0
 10
423.481192
 20
698.217600
 30
0.0
  0
SPLINE
  5
191
100
AcDbEntity
  8
Layer_1
 62
7
100
AcDbSpline
 70
8
 71
3
 72
8
 73
4
 74
0
 40
0
 40
0
 40
0
 40
0
 40
1
 40
1
 40
1
 40
1
 10
423.481192
 20
698.217600
 30
0.0
 10
423.762734
 20
697.843789
 30
0.0
 10
423.903506
 20
697.033865
 30
0.0
 10
423.903506
 20
695.787829
 30
0.0
  0
SPLINE
  5
192
100
AcDbEntity
  8
Layer_1
 62
7
100
AcDbSpline
 70
8
 71
3
 72
8
 73
4
 74
0
 40
0
 40
0
 40
0
 40
0
 40
1
 40
1
 40
1
 40
1
 10
423.903506
 20
695.787829
 30
0.0
 10
423.903506
 20
694.199132
 30
0.0
 10
423.722512
 20
693.264605
 30
0.0
 10
423.360523
 20
692.984247
 30
0.0
  0
SPLINE
  5
193
100
AcDbEntity
  8
Layer_1
 62
7
100
AcDbSpline
 70
8
 71
3
 72
8
 73
4
 74
0
 40
0
 40
0
 40
0
 40
0
 40
1
 40
1
 40
1
 40
1
 10
423.360523
 20
692.984247
 30
0.0
 10
422.998535
 20
692.735040
 30
0.0
 10
422.174005
 20
692.610436
 30
0.0
 10
420.886934
 20
692.610436
 30
0.0
  0
LWPOLYLINE
  5
194
100
AcDbEntity
  8
Layer_1
 62
7
100
AcDbPolyline
 90
3
 70
0
 10
420.826599
 20
762.793433
 30
0.0
 10
419.016648
 20
762.793433
 30
0.0
 10
419.016648
 20
702.796782
 30
0.0
  0
SPLINE
  5
195
100
AcDbEntity
  8
Layer_1
 62
7
100
AcDbSpline
 70
8
 71
3
 72
8
 73
4
 74
0
 40
0
 40
0
 40
0
 40
0
 40
1
 40
1
 40
1
 40
1
 10
394.341048
 20
692.610436
 30
0.0
 10
393.295297
 20
692.610436
 30
0.0
 10
392.611538
 20
692.766191
 30
0.0
 10
392.289773
 20
693.077700
 30
0.0
  0
SPLINE
  5
196
100
AcDbEntity
  8
Layer_1
 62
7
100
AcDbSpline
 70
8
 71
3
 72
8
 73
4
 74
0
 40
0
 40
0
 40
0
 40
0
 40
1
 40
1
 40
1
 40
1
 10
392.289773
 20
693.077700
 30
0.0
 10
392.008230
 20
693.389209
 30
0.0
 10
391.867459
 20
694.277010
 30
0.0
 10
391.867459
 20
695.741103
 30
0.0
  0
SPLINE
  5
197
100
AcDbEntity
  8
Layer_1
 62
7
100
AcDbSpline
 70
8
 71
3
 72
8
 73
4
 74
0
 40
0
 40
0
 40
0
 40
0
 40
1
 40
1
 40
1
 40
1
 10
391.867459
 20
695.741103
 30
0.0
 10
391.867459
 20
697.485553
 30
0.0
 10
392.490883
 20
698.544684
 30
0.0
 10
393.737731
 20
698.918495
 30
0.0
  0
SPLINE
  5
198
100
AcDbEntity
  8
Layer_1
 62
7
100
AcDbSpline
 70
8
 71
3
 72
8
 73
4
 74
0
 40
0
 40
0
 40
0
 40
0
 40
1
 40
1
 40
1
 40
1
 10
393.737731
 20
698.918495
 30
0.0
 10
394.944365
 20
699.292306
 30
0.0
 10
395.708565
 20
699.650541
 30
0.0
 10
396.030331
 20
699.993201
 30
0.0
  0
SPLINE
  5
199
100
AcDbEntity
  8
Layer_1
 62
7
100
AcDbSpline
 70
8
 71
3
 72
8
 73
4
 74
0
 40
0
 40
0
 40
0
 40
0
 40
1
 40
1
 40
1
 40
1
 10
396.030331
 20
699.993201
 30
0.0
 10
396.352096
 20
700.367012
 30
0.0
 10
396.512979
 20
700.990031
 30
0.0
 10
396.512979
 20
701.862256
 30
0.0
  0
LWPOLYLINE
  5
19a
100
AcDbEntity
  8
Layer_1
 62
7
100
AcDbPolyline
 90
2
 70
0
 10
420.886934
 20
692.610436
 30
0.0
 10
394.341048
 20
692.610436
 30
0.0
  0
LWPOLYLINE
  5
19b
100
AcDbEntity
  8
Layer_1
 62
7
100
AcDbPolyline
 90
2
 70
0
 10
396.512979
 20
701.862256
 30
0.0
 10
396.513046
 20
762.793433
 30
0.0
  0
LWPOLYLINE
  5
19c
100
AcDbEntity
  8
Layer_1
 62
7
100
AcDbPolyline
 90
11
 70
1
 10
243.341122
 20
802.376828
 30
0.0
 10
246.306931
 20
802.376828
 30
0.0
 10
246.306931
 20
794.151926
 30
0.0
 10
256.144016
 20
802.376828
 30
0.0
 10
259.961394
 20
802.376828
 30
0.0
 10
249.081872
 20
793.304668
 30
0.0
 10
260.739551
 20
782.916012
 30
0.0
 10
256.834084
 20
782.916012
 30
0.0
 10
246.306931
 20
792.287960
 30
0.0
 10
246.306931
 20
782.916012
 30
0.0
 10
243.341122
 20
782.916012
 30
0.0
  0
SPLINE
  5
19d
100
AcDbEntity
  8
Layer_1
 62
7
100
AcDbSpline
 70
8
 71
3
 72
8
 73
4
 74
0
 40
0
 40
0
 40
0
 40
0
 40
1
 40
1
 40
1
 40
1
 10
265.702144
 20
790.554350
 30
0.0
 10
265.702144
 20
788.468797
 30
0.0
 10
266.127930
 20
786.965461
 30
0.0
 10
266.979503
 20
786.044342
 30
0.0
  0
SPLINE
  5
19e
100
AcDbEntity
  8
Layer_1
 62
7
100
AcDbSpline
 70
8
 71
3
 72
8
 73
4
 74
0
 40
0
 40
0
 40
0
 40
0
 40
1
 40
1
 40
1
 40
1
 10
266.979503
 20
786.044342
 30
0.0
 10
267.831068
 20
785.131910
 30
0.0
 10
269.211198
 20
784.675694
 30
0.0
 10
271.119893
 20
784.675694
 30
0.0
  0
SPLINE
  5
19f
100
AcDbEntity
  8
Layer_1
 62
7
100
AcDbSpline
 70
8
 71
3
 72
8
 73
4
 74
0
 40
0
 40
0
 40
0
 40
0
 40
1
 40
1
 40
1
 40
1
 10
271.119893
 20
784.675694
 30
0.0
 10
273.018787
 20
784.675694
 30
0.0
 10
274.394021
 20
785.131910
 30
0.0
 10
275.245594
 20
786.044342
 30
0.0
  0
SPLINE
  5
1a0
100
AcDbEntity
  8
Layer_1
 62
7
100
AcDbSpline
 70
8
 71
3
 72
8
 73
4
 74
0
 40
0
 40
0
 40
0
 40
0
 40
1
 40
1
 40
1
 40
1
 10
275.245594
 20
786.044342
 30
0.0
 10
276.097159
 20
786.965461
 30
0.0
 10
276.522942
 20
788.468797
 30
0.0
 10
276.522942
 20
790.554350
 30
0.0
  0
LWPOLYLINE
  5
1a1
100
AcDbEntity
  8
Layer_1
 62
7
100
AcDbPolyline
 90
3
 70
0
 10
262.721657
 20
802.376828
 30
0.0
 10
265.702144
 20
802.376828
 30
0.0
 10
265.702144
 20
790.554350
 30
0.0
  0
SPLINE
  5
1a2
100
AcDbEntity
  8
Layer_1
 62
7
100
AcDbSpline
 70
8
 71
3
 72
8
 73
4
 74
0
 40
0
 40
0
 40
0
 40
0
 40
1
 40
1
 40
1
 40
1
 10
279.503440
 20
790.228482
 30
0.0
 10
279.503440
 20
787.691056
 30
0.0
 10
278.793797
 20
785.774953
 30
0.0
 10
277.374511
 20
784.480172
 30
0.0
  0
SPLINE
  5
1a3
100
AcDbEntity
  8
Layer_1
 62
7
100
AcDbSpline
 70
8
 71
3
 72
8
 73
4
 74
0
 40
0
 40
0
 40
0
 40
0
 40
1
 40
1
 40
1
 40
1
 10
277.374511
 20
784.480172
 30
0.0
 10
275.965018
 20
783.185392
 30
0.0
 10
273.880145
 20
782.538001
 30
0.0
 10
271.119893
 20
782.538001
 30
0.0
  0
SPLINE
  5
1a4
100
AcDbEntity
  8
Layer_1
 62
7
100
AcDbSpline
 70
8
 71
3
 72
8
 73
4
 74
0
 40
0
 40
0
 40
0
 40
0
 40
1
 40
1
 40
1
 40
1
 10
271.119893
 20
782.538001
 30
0.0
 10
268.349840
 20
782.538001
 30
0.0
 10
266.255175
 20
783.185392
 30
0.0
 10
264.835897
 20
784.480172
 30
0.0
  0
SPLINE
  5
1a5
100
AcDbEntity
  8
Layer_1
 62
7
100
AcDbSpline
 70
8
 71
3
 72
8
 73
4
 74
0
 40
0
 40
0
 40
0
 40
0
 40
1
 40
1
 40
1
 40
1
 10
264.835897
 20
784.480172
 30
0.0
 10
263.426403
 20
785.774953
 30
0.0
 10
262.721657
 20
787.691056
 30
0.0
 10
262.721657
 20
790.228482
 30
0.0
  0
LWPOLYLINE
  5
1a6
100
AcDbEntity
  8
Layer_1
 62
7
100
AcDbPolyline
 90
4
 70
0
 10
276.522942
 20
790.554350
 30
0.0
 10
276.522942
 20
802.376828
 30
0.0
 10
279.503440
 20
802.376828
 30
0.0
 10
279.503440
 20
790.228482
 30
0.0
  0
LWPOLYLINE
  5
1a7
100
AcDbEntity
  8
Layer_1
 62
7
100
AcDbPolyline
 90
2
 70
0
 10
262.721657
 20
790.228482
 30
0.0
 10
262.721657
 20
802.376828
 30
0.0
  0
LWPOLYLINE
  5
1a8
100
AcDbEntity
  8
Layer_1
 62
7
100
AcDbPolyline
 90
10
 70
1
 10
285.068000
 20
802.376828
 30
0.0
 10
289.061568
 20
802.376828
 30
0.0
 10
298.781196
 20
786.096475
 30
0.0
 10
298.781196
 20
802.376828
 30
0.0
 10
301.658916
 20
802.376828
 30
0.0
 10
301.658916
 20
782.916012
 30
0.0
 10
297.665349
 20
782.916012
 30
0.0
 10
287.945720
 20
799.196356
 30
0.0
 10
287.945720
 20
782.916012
 30
0.0
 10
285.068000
 20
782.916012
 30
0.0
  0
LWPOLYLINE
  5
1a9
100
AcDbEntity
  8
Layer_1
 62
7
100
AcDbPolyline
 90
4
 70
1
 10
165.764995
 20
681.768159
 30
0.0
 10
167.652540
 20
681.768159
 30
0.0
 10
167.652540
 20
657.102321
 30
0.0
 10
165.764995
 20
657.102321
 30
0.0
  0
SPLINE
  5
1aa
100
AcDbEntity
  8
Layer_1
 62
7
100
AcDbSpline
 70
8
 71
3
 72
8
 73
4
 74
0
 40
0
 40
0
 40
0
 40
0
 40
1
 40
1
 40
1
 40
1
 10
181.659614
 20
659.844806
 30
0.0
 10
183.584532
 20
659.844806
 30
0.0
 10
184.992404
 20
660.615785
 30
0.0
 10
185.883229
 20
662.157744
 30
0.0
  0
SPLINE
  5
1ab
100
AcDbEntity
  8
Layer_1
 62
7
100
AcDbSpline
 70
8
 71
3
 72
8
 73
4
 74
0
 40
0
 40
0
 40
0
 40
0
 40
1
 40
1
 40
1
 40
1
 10
185.883229
 20
662.157744
 30
0.0
 10
186.780276
 20
663.699703
 30
0.0
 10
187.228799
 20
666.133796
 30
0.0
 10
187.228799
 20
669.460022
 30
0.0
  0
SPLINE
  5
1ac
100
AcDbEntity
  8
Layer_1
 62
7
100
AcDbSpline
 70
8
 71
3
 72
8
 73
4
 74
0
 40
0
 40
0
 40
0
 40
0
 40
1
 40
1
 40
1
 40
1
 10
187.228799
 20
669.460022
 30
0.0
 10
187.228799
 20
672.764220
 30
0.0
 10
186.780276
 20
675.181791
 30
0.0
 10
185.883229
 20
676.712736
 30
0.0
  0
SPLINE
  5
1ad
100
AcDbEntity
  8
Layer_1
 62
7
100
AcDbSpline
 70
8
 71
3
 72
8
 73
4
 74
0
 40
0
 40
0
 40
0
 40
0
 40
1
 40
1
 40
1
 40
1
 10
185.883229
 20
676.712736
 30
0.0
 10
184.992404
 20
678.254695
 30
0.0
 10
183.584532
 20
679.025675
 30
0.0
 10
181.659614
 20
679.025675
 30
0.0
  0
LWPOLYLINE
  5
1ae
100
AcDbEntity
  8
Layer_1
 62
7
100
AcDbPolyline
 90
3
 70
0
 10
179.379611
 20
679.025675
 30
0.0
 10
179.379611
 20
659.844806
 30
0.0
 10
181.659614
 20
659.844806
 30
0.0
  0
LWPOLYLINE
  5
1af
100
AcDbEntity
  8
Layer_1
 62
7
100
AcDbPolyline
 90
2
 70
0
 10
181.659614
 20
679.025675
 30
0.0
 10
179.379611
 20
679.025675
 30
0.0
  0
SPLINE
  5
1b0
100
AcDbEntity
  8
Layer_1
 62
7
100
AcDbSpline
 70
8
 71
3
 72
8
 73
4
 74
0
 40
0
 40
0
 40
0
 40
0
 40
1
 40
1
 40
1
 40
1
 10
181.369941
 20
681.768159
 30
0.0
 10
184.073552
 20
681.768159
 30
0.0
 10
186.057652
 20
680.771393
 30
0.0
 10
187.322243
 20
678.777861
 30
0.0
  0
SPLINE
  5
1b1
100
AcDbEntity
  8
Layer_1
 62
7
100
AcDbSpline
 70
8
 71
3
 72
8
 73
4
 74
0
 40
0
 40
0
 40
0
 40
0
 40
1
 40
1
 40
1
 40
1
 10
187.322243
 20
678.777861
 30
0.0
 10
188.586839
 20
676.795342
 30
0.0
 10
189.219137
 20
673.689396
 30
0.0
 10
189.219137
 20
669.460022
 30
0.0
  0
SPLINE
  5
1b2
100
AcDbEntity
  8
Layer_1
 62
7
100
AcDbSpline
 70
8
 71
3
 72
8
 73
4
 74
0
 40
0
 40
0
 40
0
 40
0
 40
1
 40
1
 40
1
 40
1
 10
189.219137
 20
669.460022
 30
0.0
 10
189.219137
 20
665.208620
 30
0.0
 10
188.583725
 20
662.086153
 30
0.0
 10
187.312902
 20
660.092621
 30
0.0
  0
SPLINE
  5
1b3
100
AcDbEntity
  8
Layer_1
 62
7
100
AcDbSpline
 70
8
 71
3
 72
8
 73
4
 74
0
 40
0
 40
0
 40
0
 40
0
 40
1
 40
1
 40
1
 40
1
 10
187.312902
 20
660.092621
 30
0.0
 10
186.042080
 20
658.099088
 30
0.0
 10
184.061093
 20
657.102321
 30
0.0
 10
181.369941
 20
657.102321
 30
0.0
  0
LWPOLYLINE
  5
1b4
100
AcDbEntity
  8
Layer_1
 62
7
100
AcDbPolyline
 90
2
 70
0
 10
177.492066
 20
681.768159
 30
0.0
 10
181.369941
 20
681.768159
 30
0.0
  0
LWPOLYLINE
  5
1b5
100
AcDbEntity
  8
Layer_1
 62
7
100
AcDbPolyline
 90
3
 70
0
 10
181.369941
 20
657.102321
 30
0.0
 10
177.492066
 20
657.102321
 30
0.0
 10
177.492066
 20
681.768159
 30
0.0
  0
LWPOLYLINE
  5
1b6
100
AcDbEntity
  8
Layer_1
 62
7
100
AcDbPolyline
 90
12
 70
1
 10
192.227995
 20
681.768159
 30
0.0
 10
201.048992
 20
681.768159
 30
0.0
 10
201.048992
 20
678.959591
 30
0.0
 10
194.115533
 20
678.959591
 30
0.0
 10
194.115533
 20
671.657314
 30
0.0
 10
200.759320
 20
671.657314
 30
0.0
 10
200.759320
 20
668.848746
 30
0.0
 10
194.115533
 20
668.848746
 30
0.0
 10
194.115533
 20
659.910890
 30
0.0
 10
201.217191
 20
659.910890
 30
0.0
 10
201.217191
 20
657.102321
 30
0.0
 10
192.227995
 20
657.102321
 30
0.0
  0
LWPOLYLINE
  5
1b7
100
AcDbEntity
  8
Layer_1
 62
7
100
AcDbPolyline
 90
10
 70
1
 10
204.319486
 20
681.768159
 30
0.0
 10
206.861132
 20
681.768159
 30
0.0
 10
213.047047
 20
661.133443
 30
0.0
 10
213.047047
 20
681.768159
 30
0.0
 10
214.878526
 20
681.768159
 30
0.0
 10
214.878526
 20
657.102321
 30
0.0
 10
212.336880
 20
657.102321
 30
0.0
 10
206.150965
 20
677.737037
 30
0.0
 10
206.150965
 20
657.102321
 30
0.0
 10
204.319486
 20
657.102321
 30
0.0
  0
LWPOLYLINE
  5
1b8
100
AcDbEntity
  8
Layer_1
 62
7
100
AcDbPolyline
 90
10
 70
1
 10
218.634928
 20
681.768159
 30
0.0
 10
221.176566
 20
681.768159
 30
0.0
 10
227.362482
 20
661.133443
 30
0.0
 10
227.362482
 20
681.768159
 30
0.0
 10
229.193961
 20
681.768159
 30
0.0
 10
229.193961
 20
657.102321
 30
0.0
 10
226.652315
 20
657.102321
 30
0.0
 10
220.466400
 20
677.737037
 30
0.0
 10
220.466400
 20
657.102321
 30
0.0
 10
218.634928
 20
657.102321
 30
0.0
  0
LWPOLYLINE
  5
1b9
100
AcDbEntity
  8
Layer_1
 62
7
100
AcDbPolyline
 90
12
 70
1
 10
232.950356
 20
681.768159
 30
0.0
 10
241.771360
 20
681.768159
 30
0.0
 10
241.771360
 20
678.959591
 30
0.0
 10
234.837901
 20
678.959591
 30
0.0
 10
234.837901
 20
671.657314
 30
0.0
 10
241.481688
 20
671.657314
 30
0.0
 10
241.481688
 20
668.848746
 30
0.0
 10
234.837901
 20
668.848746
 30
0.0
 10
234.837901
 20
659.910890
 30
0.0
 10
241.939552
 20
659.910890
 30
0.0
 10
241.939552
 20
657.102321
 30
0.0
 10
232.950356
 20
657.102321
 30
0.0
  0
SPLINE
  5
1ba
100
AcDbEntity
  8
Layer_1
 62
7
100
AcDbSpline
 70
8
 71
3
 72
8
 73
4
 74
0
 40
0
 40
0
 40
0
 40
0
 40
1
 40
1
 40
1
 40
1
 10
256.040070
 20
659.844806
 30
0.0
 10
257.055481
 20
659.844806
 30
0.0
 10
257.806139
 20
660.213775
 30
0.0
 10
258.292043
 20
660.951712
 30
0.0
  0
SPLINE
  5
1bb
100
AcDbEntity
  8
Layer_1
 62
7
100
AcDbSpline
 70
8
 71
3
 72
8
 73
4
 74
0
 40
0
 40
0
 40
0
 40
0
 40
1
 40
1
 40
1
 40
1
 10
258.292043
 20
660.951712
 30
0.0
 10
258.784174
 20
661.700664
 30
0.0
 10
259.030239
 20
662.840612
 30
0.0
 10
259.030239
 20
664.371557
 30
0.0
  0
SPLINE
  5
1bc
100
AcDbEntity
  8
Layer_1
 62
7
100
AcDbSpline
 70
8
 71
3
 72
8
 73
4
 74
0
 40
0
 40
0
 40
0
 40
0
 40
1
 40
1
 40
1
 40
1
 10
259.030239
 20
664.371557
 30
0.0
 10
259.030239
 20
665.913516
 30
0.0
 10
258.784174
 20
667.047957
 30
0.0
 10
258.292043
 20
667.774881
 30
0.0
  0
SPLINE
  5
1bd
100
AcDbEntity
  8
Layer_1
 62
7
100
AcDbSpline
 70
8
 71
3
 72
8
 73
4
 74
0
 40
0
 40
0
 40
0
 40
0
 40
1
 40
1
 40
1
 40
1
 10
258.292043
 20
667.774881
 30
0.0
 10
257.806139
 20
668.512818
 30
0.0
 10
257.055481
 20
668.881787
 30
0.0
 10
256.040070
 20
668.881787
 30
0.0
  0
LWPOLYLINE
  5
1be
100
AcDbEntity
  8
Layer_1
 62
7
100
AcDbPolyline
 90
3
 70
0
 10
253.012523
 20
668.881787
 30
0.0
 10
253.012523
 20
659.844806
 30
0.0
 10
256.040070
 20
659.844806
 30
0.0
  0
LWPOLYLINE
  5
1bf
100
AcDbEntity
  8
Layer_1
 62
7
100
AcDbPolyline
 90
2
 70
0
 10
256.040070
 20
668.881787
 30
0.0
 10
253.012523
 20
668.881787
 30
0.0
  0
SPLINE
  5
1c0
100
AcDbEntity
  8
Layer_1
 62
7
100
AcDbSpline
 70
8
 71
3
 72
8
 73
4
 74
0
 40
0
 40
0
 40
0
 40
0
 40
1
 40
1
 40
1
 40
1
 10
255.806463
 20
671.591230
 30
0.0
 10
256.728434
 20
671.591230
 30
0.0
 10
257.413682
 20
671.894115
 30
0.0
 10
257.862208
 20
672.499884
 30
0.0
  0
SPLINE
  5
1c1
100
AcDbEntity
  8
Layer_1
 62
7
100
AcDbSpline
 70
8
 71
3
 72
8
 73
4
 74
0
 40
0
 40
0
 40
0
 40
0
 40
1
 40
1
 40
1
 40
1
 10
257.862208
 20
672.499884
 30
0.0
 10
258.316961
 20
673.116667
 30
0.0
 10
258.544338
 20
674.052857
 30
0.0
 10
258.544338
 20
675.308452
 30
0.0
  0
SPLINE
  5
1c2
100
AcDbEntity
  8
Layer_1
 62
7
100
AcDbSpline
 70
8
 71
3
 72
8
 73
4
 74
0
 40
0
 40
0
 40
0
 40
0
 40
1
 40
1
 40
1
 40
1
 10
258.544338
 20
675.308452
 30
0.0
 10
258.544338
 20
676.553034
 30
0.0
 10
258.316961
 20
677.483716
 30
0.0
 10
257.862208
 20
678.100500
 30
0.0
  0
SPLINE
  5
1c3
100
AcDbEntity
  8
Layer_1
 62
7
100
AcDbSpline
 70
8
 71
3
 72
8
 73
4
 74
0
 40
0
 40
0
 40
0
 40
0
 40
1
 40
1
 40
1
 40
1
 10
257.862208
 20
678.100500
 30
0.0
 10
257.413682
 20
678.717283
 30
0.0
 10
256.728434
 20
679.025675
 30
0.0
 10
255.806463
 20
679.025675
 30
0.0
  0
LWPOLYLINE
  5
1c4
100
AcDbEntity
  8
Layer_1
 62
7
100
AcDbPolyline
 90
3
 70
0
 10
253.012523
 20
679.025675
 30
0.0
 10
253.012523
 20
671.591230
 30
0.0
 10
255.806463
 20
671.591230
 30
0.0
  0
LWPOLYLINE
  5
1c5
100
AcDbEntity
  8
Layer_1
 62
7
100
AcDbPolyline
 90
2
 70
0
 10
255.806463
 20
679.025675
 30
0.0
 10
253.012523
 20
679.025675
 30
0.0
  0
SPLINE
  5
1c6
100
AcDbEntity
  8
Layer_1
 62
7
100
AcDbSpline
 70
8
 71
3
 72
8
 73
4
 74
0
 40
0
 40
0
 40
0
 40
0
 40
1
 40
1
 40
1
 40
1
 10
255.946626
 20
681.768159
 30
0.0
 10
257.385645
 20
681.768159
 30
0.0
 10
258.494501
 20
681.239487
 30
0.0
 10
259.273193
 20
680.182144
 30
0.0
  0
SPLINE
  5
1c7
100
AcDbEntity
  8
Layer_1
 62
7
100
AcDbSpline
 70
8
 71
3
 72
8
 73
4
 74
0
 40
0
 40
0
 40
0
 40
0
 40
1
 40
1
 40
1
 40
1
 10
259.273193
 20
680.182144
 30
0.0
 10
260.051880
 20
679.124801
 30
0.0
 10
260.441224
 20
677.621391
 30
0.0
 10
260.441224
 20
675.671914
 30
0.0
  0
SPLINE
  5
1c8
100
AcDbEntity
  8
Layer_1
 62
7
100
AcDbSpline
 70
8
 71
3
 72
8
 73
4
 74
0
 40
0
 40
0
 40
0
 40
0
 40
1
 40
1
 40
1
 40
1
 10
260.441224
 20
675.671914
 30
0.0
 10
260.441224
 20
674.162997
 30
0.0
 10
260.241879
 20
672.962471
 30
0.0
 10
259.843190
 20
672.070338
 30
0.0
  0
SPLINE
  5
1c9
100
AcDbEntity
  8
Layer_1
 62
7
100
AcDbSpline
 70
8
 71
3
 72
8
 73
4
 74
0
 40
0
 40
0
 40
0
 40
0
 40
1
 40
1
 40
1
 40
1
 10
259.843190
 20
672.070338
 30
0.0
 10
259.444501
 20
671.178205
 30
0.0
 10
258.858926
 20
670.621998
 30
0.0
 10
258.086466
 20
670.401718
 30
0.0
  0
SPLINE
  5
1ca
100
AcDbEntity
  8
Layer_1
 62
7
100
AcDbSpline
 70
8
 71
3
 72
8
 73
4
 74
0
 40
0
 40
0
 40
0
 40
0
 40
1
 40
1
 40
1
 40
1
 10
258.086466
 20
670.401718
 30
0.0
 10
259.014669
 20
670.049271
 30
0.0
 10
259.734178
 20
669.311333
 30
0.0
 10
260.244995
 20
668.187906
 30
0.0
  0
SPLINE
  5
1cb
100
AcDbEntity
  8
Layer_1
 62
7
100
AcDbSpline
 70
8
 71
3
 72
8
 73
4
 74
0
 40
0
 40
0
 40
0
 40
0
 40
1
 40
1
 40
1
 40
1
 10
260.244995
 20
668.187906
 30
0.0
 10
260.762044
 20
667.075493
 30
0.0
 10
261.020569
 20
665.682223
 30
0.0
 10
261.020569
 20
664.008096
 30
0.0
  0
SPLINE
  5
1cc
100
AcDbEntity
  8
Layer_1
 62
7
100
AcDbSpline
 70
8
 71
3
 72
8
 73
4
 74
0
 40
0
 40
0
 40
0
 40
0
 40
1
 40
1
 40
1
 40
1
 10
261.020569
 20
664.008096
 30
0.0
 10
261.020569
 20
661.805297
 30
0.0
 10
260.596964
 20
660.103635
 30
0.0
 10
259.749754
 20
658.903109
 30
0.0
  0
SPLINE
  5
1cd
100
AcDbEntity
  8
Layer_1
 62
7
100
AcDbSpline
 70
8
 71
3
 72
8
 73
4
 74
0
 40
0
 40
0
 40
0
 40
0
 40
1
 40
1
 40
1
 40
1
 10
259.749754
 20
658.903109
 30
0.0
 10
258.902538
 20
657.702584
 30
0.0
 10
257.697125
 20
657.102321
 30
0.0
 10
256.133514
 20
657.102321
 30
0.0
  0
LWPOLYLINE
  5
1ce
100
AcDbEntity
  8
Layer_1
 62
7
100
AcDbPolyline
 90
2
 70
0
 10
251.124985
 20
681.768159
 30
0.0
 10
255.946626
 20
681.768159
 30
0.0
  0
LWPOLYLINE
  5
1cf
100
AcDbEntity
  8
Layer_1
 62
7
100
AcDbPolyline
 90
3
 70
0
 10
256.133514
 20
657.102321
 30
0.0
 10
251.124985
 20
657.102321
 30
0.0
 10
251.124985
 20
681.768159
 30
0.0
  0
LWPOLYLINE
  5
1d0
100
AcDbEntity
  8
Layer_1
 62
7
100
AcDbPolyline
 90
12
 70
1
 10
264.253693
 20
681.768159
 30
0.0
 10
273.074697
 20
681.768159
 30
0.0
 10
273.074697
 20
678.959591
 30
0.0
 10
266.141238
 20
678.959591
 30
0.0
 10
266.141238
 20
671.657314
 30
0.0
 10
272.785025
 20
671.657314
 30
0.0
 10
272.785025
 20
668.848746
 30
0.0
 10
266.141238
 20
668.848746
 30
0.0
 10
266.141238
 20
659.910890
 30
0.0
 10
273.242889
 20
659.910890
 30
0.0
 10
273.242889
 20
657.102321
 30
0.0
 10
264.253693
 20
657.102321
 30
0.0
  0
SPLINE
  5
1d1
100
AcDbEntity
  8
Layer_1
 62
7
100
AcDbSpline
 70
8
 71
3
 72
8
 73
4
 74
0
 40
0
 40
0
 40
0
 40
0
 40
1
 40
1
 40
1
 40
1
 10
296.398018
 20
679.504784
 30
0.0
 10
295.027521
 20
679.504784
 30
0.0
 10
293.937354
 20
678.601637
 30
0.0
 10
293.127517
 20
676.795341
 30
0.0
  0
SPLINE
  5
1d2
100
AcDbEntity
  8
Layer_1
 62
7
100
AcDbSpline
 70
8
 71
3
 72
8
 73
4
 74
0
 40
0
 40
0
 40
0
 40
0
 40
1
 40
1
 40
1
 40
1
 10
293.127517
 20
676.795341
 30
0.0
 10
292.323911
 20
674.989046
 30
0.0
 10
291.922108
 20
672.527419
 30
0.0
 10
291.922108
 20
669.410458
 30
0.0
  0
SPLINE
  5
1d3
100
AcDbEntity
  8
Layer_1
 62
7
100
AcDbSpline
 70
8
 71
3
 72
8
 73
4
 74
0
 40
0
 40
0
 40
0
 40
0
 40
1
 40
1
 40
1
 40
1
 10
291.922108
 20
669.410458
 30
0.0
 10
291.922108
 20
666.304512
 30
0.0
 10
292.323911
 20
663.848392
 30
0.0
 10
293.127517
 20
662.042097
 30
0.0
  0
SPLINE
  5
1d4
100
AcDbEntity
  8
Layer_1
 62
7
100
AcDbSpline
 70
8
 71
3
 72
8
 73
4
 74
0
 40
0
 40
0
 40
0
 40
0
 40
1
 40
1
 40
1
 40
1
 10
293.127517
 20
662.042097
 30
0.0
 10
293.937354
 20
660.235803
 30
0.0
 10
295.027521
 20
659.332655
 30
0.0
 10
296.398018
 20
659.332655
 30
0.0
  0
SPLINE
  5
1d5
100
AcDbEntity
  8
Layer_1
 62
7
100
AcDbSpline
 70
8
 71
3
 72
8
 73
4
 74
0
 40
0
 40
0
 40
0
 40
0
 40
1
 40
1
 40
1
 40
1
 10
296.398018
 20
659.332655
 30
0.0
 10
297.768509
 20
659.332655
 30
0.0
 10
298.852444
 20
660.235803
 30
0.0
 10
299.649823
 20
662.042097
 30
0.0
  0
SPLINE
  5
1d6
100
AcDbEntity
  8
Layer_1
 62
7
100
AcDbSpline
 70
8
 71
3
 72
8
 73
4
 74
0
 40
0
 40
0
 40
0
 40
0
 40
1
 40
1
 40
1
 40
1
 10
299.649823
 20
662.042097
 30
0.0
 10
300.453433
 20
663.848392
 30
0.0
 10
300.855238
 20
666.304512
 30
0.0
 10
300.855238
 20
669.410458
 30
0.0
  0
SPLINE
  5
1d7
100
AcDbEntity
  8
Layer_1
 62
7
100
AcDbSpline
 70
8
 71
3
 72
8
 73
4
 74
0
 40
0
 40
0
 40
0
 40
0
 40
1
 40
1
 40
1
 40
1
 10
300.855238
 20
669.410458
 30
0.0
 10
300.855238
 20
672.527419
 30
0.0
 10
300.453433
 20
674.989046
 30
0.0
 10
299.649823
 20
676.795341
 30
0.0
  0
SPLINE
  5
1d8
100
AcDbEntity
  8
Layer_1
 62
7
100
AcDbSpline
 70
8
 71
3
 72
8
 73
4
 74
0
 40
0
 40
0
 40
0
 40
0
 40
1
 40
1
 40
1
 40
1
 10
299.649823
 20
676.795341
 30
0.0
 10
298.852444
 20
678.601637
 30
0.0
 10
297.768509
 20
679.504784
 30
0.0
 10
296.398018
 20
679.504784
 30
0.0
  0
LWPOLYLINE
  5
1d9
100
AcDbEntity
  8
Layer_1
 62
7
100
AcDbPolyline
 90
12
 70
1
 10
276.345191
 20
681.768159
 30
0.0
 10
278.232737
 20
681.768159
 30
0.0
 10
278.232737
 20
671.657314
 30
0.0
 10
285.091433
 20
671.657314
 30
0.0
 10
285.091433
 20
681.768159
 30
0.0
 10
286.978979
 20
681.768159
 30
0.0
 10
286.978979
 20
657.102321
 30
0.0
 10
285.091433
 20
657.102321
 30
0.0
 10
285.091433
 20
668.848746
 30
0.0
 10
278.232737
 20
668.848746
 30
0.0
 10
278.232737
 20
657.102321
 30
0.0
 10
276.345191
 20
657.102321
 30
0.0
  0
SPLINE
  5
1da
100
AcDbEntity
  8
Layer_1
 62
7
100
AcDbSpline
 70
8
 71
3
 72
8
 73
4
 74
0
 40
0
 40
0
 40
0
 40
0
 40
1
 40
1
 40
1
 40
1
 10
296.398018
 20
682.214226
 30
0.0
 10
298.354086
 20
682.214226
 30
0.0
 10
299.917695
 20
681.052250
 30
0.0
 10
301.088845
 20
678.728297
 30
0.0
  0
SPLINE
  5
1db
100
AcDbEntity
  8
Layer_1
 62
7
100
AcDbSpline
 70
8
 71
3
 72
8
 73
4
 74
0
 40
0
 40
0
 40
0
 40
0
 40
1
 40
1
 40
1
 40
1
 10
301.088845
 20
678.728297
 30
0.0
 10
302.259994
 20
676.415359
 30
0.0
 10
302.845569
 20
673.309413
 30
0.0
 10
302.845569
 20
669.410458
 30
0.0
  0
SPLINE
  5
1dc
100
AcDbEntity
  8
Layer_1
 62
7
100
AcDbSpline
 70
8
 71
3
 72
8
 73
4
 74
0
 40
0
 40
0
 40
0
 40
0
 40
1
 40
1
 40
1
 40
1
 10
302.845569
 20
669.410458
 30
0.0
 10
302.845569
 20
665.522519
 30
0.0
 10
302.259994
 20
662.416574
 30
0.0
 10
301.088845
 20
660.092621
 30
0.0
  0
SPLINE
  5
1dd
100
AcDbEntity
  8
Layer_1
 62
7
100
AcDbSpline
 70
8
 71
3
 72
8
 73
4
 74
0
 40
0
 40
0
 40
0
 40
0
 40
1
 40
1
 40
1
 40
1
 10
301.088845
 20
660.092621
 30
0.0
 10
299.917695
 20
657.779682
 30
0.0
 10
298.354086
 20
656.623213
 30
0.0
 10
296.398018
 20
656.623213
 30
0.0
  0
SPLINE
  5
1de
100
AcDbEntity
  8
Layer_1
 62
7
100
AcDbSpline
 70
8
 71
3
 72
8
 73
4
 74
0
 40
0
 40
0
 40
0
 40
0
 40
1
 40
1
 40
1
 40
1
 10
296.398018
 20
656.623213
 30
0.0
 10
294.435717
 20
656.623213
 30
0.0
 10
292.865876
 20
657.779682
 30
0.0
 10
291.688495
 20
660.092621
 30
0.0
  0
SPLINE
  5
1df
100
AcDbEntity
  8
Layer_1
 62
7
100
AcDbSpline
 70
8
 71
3
 72
8
 73
4
 74
0
 40
0
 40
0
 40
0
 40
0
 40
1
 40
1
 40
1
 40
1
 10
291.688495
 20
660.092621
 30
0.0
 10
290.517345
 20
662.405559
 30
0.0
 10
289.931771
 20
665.511505
 30
0.0
 10
289.931771
 20
669.410458
 30
0.0
  0
SPLINE
  5
1e0
100
AcDbEntity
  8
Layer_1
 62
7
100
AcDbSpline
 70
8
 71
3
 72
8
 73
4
 74
0
 40
0
 40
0
 40
0
 40
0
 40
1
 40
1
 40
1
 40
1
 10
289.931771
 20
669.410458
 30
0.0
 10
289.931771
 20
673.309413
 30
0.0
 10
290.517345
 20
676.415359
 30
0.0
 10
291.688495
 20
678.728297
 30
0.0
  0
SPLINE
  5
1e1
100
AcDbEntity
  8
Layer_1
 62
7
100
AcDbSpline
 70
8
 71
3
 72
8
 73
4
 74
0
 40
0
 40
0
 40
0
 40
0
 40
1
 40
1
 40
1
 40
1
 10
291.688495
 20
678.728297
 30
0.0
 10
292.865876
 20
681.052250
 30
0.0
 10
294.435717
 20
682.214226
 30
0.0
 10
296.398018
 20
682.214226
 30
0.0
  0
LWPOLYLINE
  5
1e2
100
AcDbEntity
  8
Layer_1
 62
7
100
AcDbPolyline
 90
1
 70
1
 10
296.398018
 20
679.504784
 30
0.0
  0
LWPOLYLINE
  5
1e3
100
AcDbEntity
  8
Layer_1
 62
7
100
AcDbPolyline
 90
1
 70
1
 10
296.398018
 20
682.214226
 30
0.0
  0
LWPOLYLINE
  5
1e4
100
AcDbEntity
  8
Layer_1
 62
7
100
AcDbPolyline
 90
6
 70
1
 10
305.798353
 20
681.768159
 30
0.0
 10
307.685898
 20
681.768159
 30
0.0
 10
307.685898
 20
659.910890
 30
0.0
 10
314.479188
 20
659.910890
 30
0.0
 10
314.479188
 20
657.102321
 30
0.0
 10
305.798353
 20
657.102321
 30
0.0
  0
SPLINE
  5
1e5
100
AcDbEntity
  8
Layer_1
 62
7
100
AcDbSpline
 70
8
 71
3
 72
8
 73
4
 74
0
 40
0
 40
0
 40
0
 40
0
 40
1
 40
1
 40
1
 40
1
 10
320.627733
 20
659.844806
 30
0.0
 10
322.552651
 20
659.844806
 30
0.0
 10
323.960523
 20
660.615785
 30
0.0
 10
324.851348
 20
662.157744
 30
0.0
  0
SPLINE
  5
1e6
100
AcDbEntity
  8
Layer_1
 62
7
100
AcDbSpline
 70
8
 71
3
 72
8
 73
4
 74
0
 40
0
 40
0
 40
0
 40
0
 40
1
 40
1
 40
1
 40
1
 10
324.851348
 20
662.157744
 30
0.0
 10
325.748395
 20
663.699703
 30
0.0
 10
326.196918
 20
666.133796
 30
0.0
 10
326.196918
 20
669.460022
 30
0.0
  0
SPLINE
  5
1e7
100
AcDbEntity
  8
Layer_1
 62
7
100
AcDbSpline
 70
8
 71
3
 72
8
 73
4
 74
0
 40
0
 40
0
 40
0
 40
0
 40
1
 40
1
 40
1
 40
1
 10
326.196918
 20
669.460022
 30
0.0
 10
326.196918
 20
672.764220
 30
0.0
 10
325.748395
 20
675.181791
 30
0.0
 10
324.851348
 20
676.712736
 30
0.0
  0
SPLINE
  5
1e8
100
AcDbEntity
  8
Layer_1
 62
7
100
AcDbSpline
 70
8
 71
3
 72
8
 73
4
 74
0
 40
0
 40
0
 40
0
 40
0
 40
1
 40
1
 40
1
 40
1
 10
324.851348
 20
676.712736
 30
0.0
 10
323.960523
 20
678.254695
 30
0.0
 10
322.552651
 20
679.025675
 30
0.0
 10
320.627733
 20
679.025675
 30
0.0
  0
LWPOLYLINE
  5
1e9
100
AcDbEntity
  8
Layer_1
 62
7
100
AcDbPolyline
 90
3
 70
0
 10
318.347730
 20
679.025675
 30
0.0
 10
318.347730
 20
659.844806
 30
0.0
 10
320.627733
 20
659.844806
 30
0.0
  0
LWPOLYLINE
  5
1ea
100
AcDbEntity
  8
Layer_1
 62
7
100
AcDbPolyline
 90
2
 70
0
 10
320.627733
 20
679.025675
 30
0.0
 10
318.347730
 20
679.025675
 30
0.0
  0
SPLINE
  5
1eb
100
AcDbEntity
  8
Layer_1
 62
7
100
AcDbSpline
 70
8
 71
3
 72
8
 73
4
 74
0
 40
0
 40
0
 40
0
 40
0
 40
1
 40
1
 40
1
 40
1
 10
320.338061
 20
681.768159
 30
0.0
 10
323.041671
 20
681.768159
 30
0.0
 10
325.025771
 20
680.771393
 30
0.0
 10
326.290362
 20
678.777861
 30
0.0
  0
SPLINE
  5
1ec
100
AcDbEntity
  8
Layer_1
 62
7
100
AcDbSpline
 70
8
 71
3
 72
8
 73
4
 74
0
 40
0
 40
0
 40
0
 40
0
 40
1
 40
1
 40
1
 40
1
 10
326.290362
 20
678.777861
 30
0.0
 10
327.554958
 20
676.795342
 30
0.0
 10
328.187256
 20
673.689396
 30
0.0
 10
328.187256
 20
669.460022
 30
0.0
  0
SPLINE
  5
1ed
100
AcDbEntity
  8
Layer_1
 62
7
100
AcDbSpline
 70
8
 71
3
 72
8
 73
4
 74
0
 40
0
 40
0
 40
0
 40
0
 40
1
 40
1
 40
1
 40
1
 10
328.187256
 20
669.460022
 30
0.0
 10
328.187256
 20
665.208620
 30
0.0
 10
327.551844
 20
662.086153
 30
0.0
 10
326.281022
 20
660.092621
 30
0.0
  0
SPLINE
  5
1ee
100
AcDbEntity
  8
Layer_1
 62
7
100
AcDbSpline
 70
8
 71
3
 72
8
 73
4
 74
0
 40
0
 40
0
 40
0
 40
0
 40
1
 40
1
 40
1
 40
1
 10
326.281022
 20
660.092621
 30
0.0
 10
325.010199
 20
658.099088
 30
0.0
 10
323.029212
 20
657.102321
 30
0.0
 10
320.338061
 20
657.102321
 30
0.0
  0
LWPOLYLINE
  5
1ef
100
AcDbEntity
  8
Layer_1
 62
7
100
AcDbPolyline
 90
2
 70
0
 10
316.460185
 20
681.768159
 30
0.0
 10
320.338061
 20
681.768159
 30
0.0
  0
LWPOLYLINE
  5
1f0
100
AcDbEntity
  8
Layer_1
 62
7
100
AcDbPolyline
 90
3
 70
0
 10
320.338061
 20
657.102321
 30
0.0
 10
316.460185
 20
657.102321
 30
0.0
 10
316.460185
 20
681.768159
 30
0.0
  0
SPLINE
  5
1f1
100
AcDbEntity
  8
Layer_1
 62
7
100
AcDbSpline
 70
8
 71
3
 72
8
 73
4
 74
0
 40
0
 40
0
 40
0
 40
0
 40
1
 40
1
 40
1
 40
1
 10
349.903355
 20
668.667014
 30
0.0
 10
350.308271
 20
668.424707
 30
0.0
 10
350.700731
 20
667.907049
 30
0.0
 10
351.080734
 20
667.114041
 30
0.0
  0
SPLINE
  5
1f2
100
AcDbEntity
  8
Layer_1
 62
7
100
AcDbSpline
 70
8
 71
3
 72
8
 73
4
 74
0
 40
0
 40
0
 40
0
 40
0
 40
1
 40
1
 40
1
 40
1
 10
351.080734
 20
667.114041
 30
0.0
 10
351.466964
 20
666.321033
 30
0.0
 10
351.853194
 20
665.230648
 30
0.0
 10
352.239424
 20
663.842885
 30
0.0
  0
LWPOLYLINE
  5
1f3
100
AcDbEntity
  8
Layer_1
 62
7
100
AcDbPolyline
 90
12
 70
1
 10
331.196114
 20
681.768159
 30
0.0
 10
340.017111
 20
681.768159
 30
0.0
 10
340.017111
 20
678.959591
 30
0.0
 10
333.083652
 20
678.959591
 30
0.0
 10
333.083652
 20
671.657314
 30
0.0
 10
339.727439
 20
671.657314
 30
0.0
 10
339.727439
 20
668.848746
 30
0.0
 10
333.083652
 20
668.848746
 30
0.0
 10
333.083652
 20
659.910890
 30
0.0
 10
340.185310
 20
659.910890
 30
0.0
 10
340.185310
 20
657.102321
 30
0.0
 10
331.196114
 20
657.102321
 30
0.0
  0
SPLINE
  5
1f4
100
AcDbEntity
  8
Layer_1
 62
7
100
AcDbSpline
 70
8
 71
3
 72
8
 73
4
 74
0
 40
0
 40
0
 40
0
 40
0
 40
1
 40
1
 40
1
 40
1
 10
350.342538
 20
663.429861
 30
0.0
 10
349.881553
 20
665.081960
 30
0.0
 10
349.433027
 20
666.177852
 30
0.0
 10
348.996960
 20
666.717538
 30
0.0
  0
SPLINE
  5
1f5
100
AcDbEntity
  8
Layer_1
 62
7
100
AcDbSpline
 70
8
 71
3
 72
8
 73
4
 74
0
 40
0
 40
0
 40
0
 40
0
 40
1
 40
1
 40
1
 40
1
 10
348.996960
 20
666.717538
 30
0.0
 10
348.567120
 20
667.257223
 30
0.0
 10
347.978429
 20
667.527066
 30
0.0
 10
347.230888
 20
667.527066
 30
0.0
  0
LWPOLYLINE
  5
1f6
100
AcDbEntity
  8
Layer_1
 62
7
100
AcDbPolyline
 90
4
 70
0
 10
352.239424
 20
663.842885
 30
0.0
 10
354.154999
 20
657.102321
 30
0.0
 10
352.127291
 20
657.102321
 30
0.0
 10
350.342538
 20
663.429861
 30
0.0
  0
SPLINE
  5
1f7
100
AcDbEntity
  8
Layer_1
 62
7
100
AcDbSpline
 70
8
 71
3
 72
8
 73
4
 74
0
 40
0
 40
0
 40
0
 40
0
 40
1
 40
1
 40
1
 40
1
 10
347.548597
 20
681.768159
 30
0.0
 10
349.143354
 20
681.768159
 30
0.0
 10
350.333192
 20
681.178911
 30
0.0
 10
351.118111
 20
680.000414
 30
0.0
  0
SPLINE
  5
1f8
100
AcDbEntity
  8
Layer_1
 62
7
100
AcDbSpline
 70
8
 71
3
 72
8
 73
4
 74
0
 40
0
 40
0
 40
0
 40
0
 40
1
 40
1
 40
1
 40
1
 10
351.118111
 20
680.000414
 30
0.0
 10
351.903031
 20
678.821917
 30
0.0
 10
352.295490
 20
677.043157
 30
0.0
 10
352.295490
 20
674.664134
 30
0.0
  0
SPLINE
  5
1f9
100
AcDbEntity
  8
Layer_1
 62
7
100
AcDbSpline
 70
8
 71
3
 72
8
 73
4
 74
0
 40
0
 40
0
 40
0
 40
0
 40
1
 40
1
 40
1
 40
1
 10
352.295490
 20
674.664134
 30
0.0
 10
352.295490
 20
673.111161
 30
0.0
 10
352.089916
 20
671.822524
 30
0.0
 10
351.678768
 20
670.798222
 30
0.0
  0
SPLINE
  5
1fa
100
AcDbEntity
  8
Layer_1
 62
7
100
AcDbSpline
 70
8
 71
3
 72
8
 73
4
 74
0
 40
0
 40
0
 40
0
 40
0
 40
1
 40
1
 40
1
 40
1
 10
351.678768
 20
670.798222
 30
0.0
 10
351.273846
 20
669.773921
 30
0.0
 10
350.682042
 20
669.063518
 30
0.0
 10
349.903355
 20
668.667014
 30
0.0
  0
LWPOLYLINE
  5
1fb
100
AcDbEntity
  8
Layer_1
 62
7
100
AcDbPolyline
 90
6
 70
0
 10
347.230888
 20
667.527066
 30
0.0
 10
345.175150
 20
667.527066
 30
0.0
 10
345.175150
 20
657.102321
 30
0.0
 10
343.287605
 20
657.102321
 30
0.0
 10
343.287605
 20
681.768159
 30
0.0
 10
347.548597
 20
681.768159
 30
0.0
  0
LWPOLYLINE
  5
1fc
100
AcDbEntity
  8
Layer_1
 62
7
100
AcDbPolyline
 90
1
 70
1
 10
349.903355
 20
668.667014
 30
0.0
  0
SPLINE
  5
1fd
100
AcDbEntity
  8
Layer_1
 62
7
100
AcDbSpline
 70
8
 71
3
 72
8
 73
4
 74
0
 40
0
 40
0
 40
0
 40
0
 40
1
 40
1
 40
1
 40
1
 10
347.548597
 20
670.269550
 30
0.0
 10
348.458108
 20
670.269550
 30
0.0
 10
349.143354
 20
670.638519
 30
0.0
 10
349.604334
 20
671.376457
 30
0.0
  0
SPLINE
  5
1fe
100
AcDbEntity
  8
Layer_1
 62
7
100
AcDbSpline
 70
8
 71
3
 72
8
 73
4
 74
0
 40
0
 40
0
 40
0
 40
0
 40
1
 40
1
 40
1
 40
1
 10
349.604334
 20
671.376457
 30
0.0
 10
350.071552
 20
672.125408
 30
0.0
 10
350.305160
 20
673.221301
 30
0.0
 10
350.305160
 20
674.664134
 30
0.0
  0
SPLINE
  5
1ff
100
AcDbEntity
  8
Layer_1
 62
7
100
AcDbSpline
 70
8
 71
3
 72
8
 73
4
 74
0
 40
0
 40
0
 40
0
 40
0
 40
1
 40
1
 40
1
 40
1
 10
350.305160
 20
674.664134
 30
0.0
 10
350.305160
 20
676.106967
 30
0.0
 10
350.071552
 20
677.191845
 30
0.0
 10
349.604334
 20
677.918769
 30
0.0
  0
SPLINE
  5
200
100
AcDbEntity
  8
Layer_1
 62
7
100
AcDbSpline
 70
8
 71
3
 72
8
 73
4
 74
0
 40
0
 40
0
 40
0
 40
0
 40
1
 40
1
 40
1
 40
1
 10
349.604334
 20
677.918769
 30
0.0
 10
349.143354
 20
678.656706
 30
0.0
 10
348.458108
 20
679.025675
 30
0.0
 10
347.548597
 20
679.025675
 30
0.0
  0
LWPOLYLINE
  5
201
100
AcDbEntity
  8
Layer_1
 62
7
100
AcDbPolyline
 90
3
 70
0
 10
345.175150
 20
679.025675
 30
0.0
 10
345.175150
 20
670.269550
 30
0.0
 10
347.548597
 20
670.269550
 30
0.0
  0
LWPOLYLINE
  5
202
100
AcDbEntity
  8
Layer_1
 62
7
100
AcDbPolyline
 90
2
 70
0
 10
347.548597
 20
679.025675
 30
0.0
 10
345.175150
 20
679.025675
 30
0.0
  0
LWPOLYLINE
  5
203
100
AcDbEntity
  8
Layer_1
 62
7
100
AcDbPolyline
 90
12
 70
1
 10
356.584504
 20
681.768159
 30
0.0
 10
365.405502
 20
681.768159
 30
0.0
 10
365.405502
 20
678.959591
 30
0.0
 10
358.472050
 20
678.959591
 30
0.0
 10
358.472050
 20
671.657314
 30
0.0
 10
365.115829
 20
671.657314
 30
0.0
 10
365.115829
 20
668.848746
 30
0.0
 10
358.472050
 20
668.848746
 30
0.0
 10
358.472050
 20
659.910890
 30
0.0
 10
365.573701
 20
659.910890
 30
0.0
 10
365.573701
 20
657.102321
 30
0.0
 10
356.584504
 20
657.102321
 30
0.0
  0
SPLINE
  5
204
100
AcDbEntity
  8
Layer_1
 62
7
100
AcDbSpline
 70
8
 71
3
 72
8
 73
4
 74
0
 40
0
 40
0
 40
0
 40
0
 40
1
 40
1
 40
1
 40
1
 10
119.083111
 20
713.311758
 30
0.0
 10
118.245701
 20
711.833341
 30
0.0
 10
117.579172
 20
709.608894
 30
0.0
 10
117.579172
 20
708.207280
 30
0.0
  0
SPLINE
  5
205
100
AcDbEntity
  8
Layer_1
 62
7
100
AcDbSpline
 70
8
 71
3
 72
8
 73
4
 74
0
 40
0
 40
0
 40
0
 40
0
 40
1
 40
1
 40
1
 40
1
 10
117.579172
 20
708.207280
 30
0.0
 10
117.579172
 20
707.881883
 30
0.0
 10
117.579172
 20
707.468009
 30
0.0
 10
117.661176
 20
706.893895
 30
0.0
  0
LWPOLYLINE
  5
206
100
AcDbEntity
  8
Layer_1
 62
7
100
AcDbPolyline
 90
10
 70
1
 10
368.676010
 20
681.768159
 30
0.0
 10
371.217656
 20
681.768159
 30
0.0
 10
377.403564
 20
661.133443
 30
0.0
 10
377.403564
 20
681.768159
 30
0.0
 10
379.235043
 20
681.768159
 30
0.0
 10
379.235043
 20
657.102321
 30
0.0
 10
376.693405
 20
657.102321
 30
0.0
 10
370.507490
 20
677.737037
 30
0.0
 10
370.507490
 20
657.102321
 30
0.0
 10
368.676010
 20
657.102321
 30
0.0
  0
SPLINE
  5
207
100
AcDbEntity
  8
Layer_1
 62
7
100
AcDbSpline
 70
8
 71
3
 72
8
 73
4
 74
0
 40
0
 40
0
 40
0
 40
0
 40
1
 40
1
 40
1
 40
1
 10
107.194985
 20
724.588331
 30
0.0
 10
106.859971
 20
725.162445
 30
0.0
 10
106.610460
 20
725.986137
 30
0.0
 10
106.610460
 20
726.728233
 30
0.0
  0
SPLINE
  5
208
100
AcDbEntity
  8
Layer_1
 62
7
100
AcDbSpline
 70
8
 71
3
 72
8
 73
4
 74
0
 40
0
 40
0
 40
0
 40
0
 40
1
 40
1
 40
1
 40
1
 10
106.610460
 20
726.728233
 30
0.0
 10
106.610460
 20
727.471313
 30
0.0
 10
106.859971
 20
728.374633
 30
0.0
 10
107.194985
 20
728.949730
 30
0.0
  0
LWPOLYLINE
  5
209
100
AcDbEntity
  8
Layer_1
 62
7
100
AcDbPolyline
 90
2
 70
0
 10
117.661176
 20
706.893895
 30
0.0
 10
107.194985
 20
724.588331
 30
0.0
  0
SPLINE
  5
20a
100
AcDbEntity
  8
Layer_1
 62
7
100
AcDbSpline
 70
8
 71
3
 72
8
 73
4
 74
0
 40
0
 40
0
 40
0
 40
0
 40
1
 40
1
 40
1
 40
1
 10
127.122575
 20
763.185335
 30
0.0
 10
128.712017
 20
765.904144
 30
0.0
 10
131.309751
 20
767.385510
 30
0.0
 10
134.488635
 20
767.385510
 30
0.0
  0
SPLINE
  5
20b
100
AcDbEntity
  8
Layer_1
 62
7
100
AcDbSpline
 70
8
 71
3
 72
8
 73
4
 74
0
 40
0
 40
0
 40
0
 40
0
 40
1
 40
1
 40
1
 40
1
 10
134.488635
 20
767.385510
 30
0.0
 10
137.923780
 20
767.385510
 30
0.0
 10
140.603643
 20
765.819723
 30
0.0
 10
142.527974
 20
762.614171
 30
0.0
  0
LWPOLYLINE
  5
20c
100
AcDbEntity
  8
Layer_1
 62
7
100
AcDbPolyline
 90
7
 70
0
 10
107.194985
 20
728.949730
 30
0.0
 10
112.219571
 20
737.591916
 30
0.0
 10
106.610460
 20
740.716856
 30
0.0
 10
124.863230
 20
741.049012
 30
0.0
 10
133.736604
 20
725.330428
 30
0.0
 10
128.045489
 20
728.539789
 30
0.0
 10
119.083111
 20
713.311758
 30
0.0
  0
SPLINE
  5
20d
100
AcDbEntity
  8
Layer_1
 62
7
100
AcDbSpline
 70
8
 71
3
 72
8
 73
4
 74
0
 40
0
 40
0
 40
0
 40
0
 40
1
 40
1
 40
1
 40
1
 10
128.291499
 20
699.074541
 30
0.0
 10
123.519798
 20
699.074541
 30
0.0
 10
119.585507
 20
702.942560
 30
0.0
 10
119.585507
 20
707.633165
 30
0.0
  0
SPLINE
  5
20e
100
AcDbEntity
  8
Layer_1
 62
7
100
AcDbSpline
 70
8
 71
3
 72
8
 73
4
 74
0
 40
0
 40
0
 40
0
 40
0
 40
1
 40
1
 40
1
 40
1
 10
119.585507
 20
707.633165
 30
0.0
 10
119.585507
 20
708.950359
 30
0.0
 10
120.173407
 20
711.174682
 30
0.0
 10
121.010817
 20
712.572488
 30
0.0
  0
LWPOLYLINE
  5
20f
100
AcDbEntity
  8
Layer_1
 62
7
100
AcDbPolyline
 90
5
 70
0
 10
142.527974
 20
762.614171
 30
0.0
 10
145.375219
 20
757.923442
 30
0.0
 10
135.493428
 20
741.129623
 30
0.0
 10
119.503504
 20
750.266295
 30
0.0
 10
127.122575
 20
763.185335
 30
0.0
  0
SPLINE
  5
210
100
AcDbEntity
  8
Layer_1
 62
7
100
AcDbSpline
 70
8
 71
3
 72
8
 73
4
 74
0
 40
0
 40
0
 40
0
 40
0
 40
1
 40
1
 40
1
 40
1
 10
144.202920
 20
763.682647
 30
0.0
 10
142.948367
 20
765.819723
 30
0.0
 10
141.273546
 20
767.304899
 30
0.0
 10
139.263712
 20
768.128590
 30
0.0
  0
LWPOLYLINE
  5
211
100
AcDbEntity
  8
Layer_1
 62
7
100
AcDbPolyline
 90
6
 70
0
 10
121.010817
 20
712.572488
 30
0.0
 10
123.687180
 20
717.263216
 30
0.0
 10
143.532767
 20
717.263216
 30
0.0
 10
143.532767
 20
699.074418
 30
0.0
 10
128.291499
 20
699.074418
 30
0.0
 10
128.291499
 20
699.074541
 30
0.0
  0
SPLINE
  5
212
100
AcDbEntity
  8
Layer_1
 62
7
100
AcDbSpline
 70
8
 71
3
 72
8
 73
4
 74
0
 40
0
 40
0
 40
0
 40
0
 40
1
 40
1
 40
1
 40
1
 10
159.857830
 20
768.128590
 30
0.0
 10
161.700157
 20
768.128590
 30
0.0
 10
163.122092
 20
767.385510
 30
0.0
 10
163.963003
 20
765.984879
 30
0.0
  0
LWPOLYLINE
  5
213
100
AcDbEntity
  8
Layer_1
 62
7
100
AcDbPolyline
 90
2
 70
0
 10
139.263712
 20
768.128590
 30
0.0
 10
159.857830
 20
768.128590
 30
0.0
  0
SPLINE
  5
214
100
AcDbEntity
  8
Layer_1
 62
7
100
AcDbSpline
 70
8
 71
3
 72
8
 73
4
 74
0
 40
0
 40
0
 40
0
 40
0
 40
1
 40
1
 40
1
 40
1
 10
175.937133
 20
717.098183
 30
0.0
 10
178.445988
 20
717.098183
 30
0.0
 10
180.541327
 20
717.756718
 30
0.0
 10
182.298276
 20
719.071085
 30
0.0
  0
LWPOLYLINE
  5
215
100
AcDbEntity
  8
Layer_1
 62
7
100
AcDbPolyline
 90
7
 70
0
 10
163.963003
 20
765.984879
 30
0.0
 10
169.069718
 20
757.426254
 30
0.0
 10
174.593826
 20
760.638564
 30
0.0
 10
165.716452
 20
744.997766
 30
0.0
 10
147.552561
 20
745.249310
 30
0.0
 10
153.161673
 20
748.374250
 30
0.0
 10
144.202920
 20
763.682647
 30
0.0
  0
SPLINE
  5
216
100
AcDbEntity
  8
Layer_1
 62
7
100
AcDbSpline
 70
8
 71
3
 72
8
 73
4
 74
0
 40
0
 40
0
 40
0
 40
0
 40
1
 40
1
 40
1
 40
1
 10
171.914088
 20
701.296160
 30
0.0
 10
171.076678
 20
699.898355
 30
0.0
 10
169.572739
 20
699.074664
 30
0.0
 10
167.815290
 20
699.074664
 30
0.0
  0
LWPOLYLINE
  5
217
100
AcDbEntity
  8
Layer_1
 62
7
100
AcDbPolyline
 90
2
 70
0
 10
182.298276
 20
719.071085
 30
0.0
 10
171.914088
 20
701.296160
 30
0.0
  0
SPLINE
  5
218
100
AcDbEntity
  8
Layer_1
 62
7
100
AcDbSpline
 70
8
 71
3
 72
8
 73
4
 74
0
 40
0
 40
0
 40
0
 40
0
 40
1
 40
1
 40
1
 40
1
 10
183.969721
 20
731.913323
 30
0.0
 10
184.725128
 20
730.596130
 30
0.0
 10
185.145521
 20
729.198324
 30
0.0
 10
185.145521
 20
727.716098
 30
0.0
  0
SPLINE
  5
219
100
AcDbEntity
  8
Layer_1
 62
7
100
AcDbSpline
 70
8
 71
3
 72
8
 73
4
 74
0
 40
0
 40
0
 40
0
 40
0
 40
1
 40
1
 40
1
 40
1
 10
185.145521
 20
727.716098
 30
0.0
 10
185.145521
 20
724.752504
 30
0.0
 10
183.217690
 20
721.624738
 30
0.0
 10
180.541327
 20
720.146197
 30
0.0
  0
SPLINE
  5
21a
100
AcDbEntity
  8
Layer_1
 62
7
100
AcDbSpline
 70
8
 71
3
 72
8
 73
4
 74
0
 40
0
 40
0
 40
0
 40
0
 40
1
 40
1
 40
1
 40
1
 10
180.541327
 20
720.146197
 30
0.0
 10
179.283524
 20
719.483730
 30
0.0
 10
177.523075
 20
719.070962
 30
0.0
 10
175.769626
 20
719.070962
 30
0.0
  0
LWPOLYLINE
  5
21b
100
AcDbEntity
  8
Layer_1
 62
7
100
AcDbPolyline
 90
8
 70
0
 10
167.815290
 20
699.074664
 30
0.0
 10
158.015502
 20
699.074664
 30
0.0
 10
158.015502
 20
692.737536
 30
0.0
 10
148.639607
 20
708.126790
 30
0.0
 10
158.015502
 20
723.519978
 30
0.0
 10
158.015502
 20
717.098306
 30
0.0
 10
175.937133
 20
717.098306
 30
0.0
 10
175.937133
 20
717.098183
 30
0.0
  0
SPLINE
  5
21c
100
AcDbEntity
  8
Layer_1
 62
7
100
AcDbSpline
 70
8
 71
3
 72
8
 73
4
 74
0
 40
0
 40
0
 40
0
 40
0
 40
1
 40
1
 40
1
 40
1
 10
180.845700
 20
538.232430
 30
0.0
 10
134.499010
 20
538.232430
 30
0.0
 10
97.169920
 20
500.903350
 30
0.0
 10
97.169920
 20
454.556650
 30
0.0
  0
LWPOLYLINE
  5
21d
100
AcDbEntity
  8
Layer_1
 62
7
100
AcDbPolyline
 90
5
 70
0
 10
175.769626
 20
719.070962
 30
0.0
 10
170.239142
 20
719.070962
 30
0.0
 10
160.363726
 20
735.864781
 30
0.0
 10
176.354150
 20
744.836296
 30
0.0
 10
183.969721
 20
731.913323
 30
0.0
  0
SPLINE
  5
21e
100
AcDbEntity
  8
Layer_1
 62
7
100
AcDbSpline
 70
8
 71
3
 72
8
 73
4
 74
0
 40
0
 40
0
 40
0
 40
0
 40
1
 40
1
 40
1
 40
1
 10
97.169920
 20
180.443380
 30
0.0
 10
97.169920
 20
134.096660
 30
0.0
 10
134.499010
 20
96.767600
 30
0.0
 10
180.845700
 20
96.767600
 30
0.0
  0
LWPOLYLINE
  5
21f
100
AcDbEntity
  8
Layer_1
 62
7
100
AcDbPolyline
 90
2
 70
0
 10
97.169920
 20
454.556650
 30
0.0
 10
97.169920
 20
180.443380
 30
0.0
  0
SPLINE
  5
220
100
AcDbEntity
  8
Layer_1
 62
7
100
AcDbSpline
 70
8
 71
3
 72
8
 73
4
 74
0
 40
0
 40
0
 40
0
 40
0
 40
1
 40
1
 40
1
 40
1
 10
364.154290
 20
96.767600
 30
0.0
 10
410.500990
 20
96.767600
 30
0.0
 10
447.830100
 20
134.096650
 30
0.0
 10
447.830100
 20
180.443370
 30
0.0
  0
LWPOLYLINE
  5
221
100
AcDbEntity
  8
Layer_1
 62
7
100
AcDbPolyline
 90
2
 70
0
 10
180.845700
 20
96.767600
 30
0.0
 10
364.154290
 20
96.767600
 30
0.0
  0
SPLINE
  5
222
100
AcDbEntity
  8
Layer_1
 62
7
100
AcDbSpline
 70
8
 71
3
 72
8
 73
4
 74
0
 40
0
 40
0
 40
0
 40
0
 40
1
 40
1
 40
1
 40
1
 10
447.830100
 20
454.556650
 30
0.0
 10
447.830100
 20
500.903350
 30
0.0
 10
410.500990
 20
538.232430
 30
0.0
 10
364.154290
 20
538.232430
 30
0.0
  0
LWPOLYLINE
  5
223
100
AcDbEntity
  8
Layer_1
 62
7
100
AcDbPolyline
 90
2
 70
0
 10
447.830100
 20
180.443370
 30
0.0
 10
447.830100
 20
454.556650
 30
0.0
  0
LWPOLYLINE
  5
224
100
AcDbEntity
  8
Layer_1
 62
7
100
AcDbPolyline
 90
2
 70
0
 10
364.154290
 20
538.232430
 30
0.0
 10
180.845700
 20
538.232430
 30
0.0
  0
SPLINE
  5
225
100
AcDbEntity
  8
Layer_1
 62
7
100
AcDbSpline
 70
8
 71
3
 72
8
 73
4
 74
0
 40
0
 40
0
 40
0
 40
0
 40
1
 40
1
 40
1
 40
1
 10
364.154290
 20
537.105480
 30
0.0
 10
409.896250
 20
537.105480
 30
0.0
 10
446.703130
 20
500.298610
 30
0.0
 10
446.703130
 20
454.556650
 30
0.0
  0
LWPOLYLINE
  5
226
100
AcDbEntity
  8
Layer_1
 62
7
100
AcDbPolyline
 90
2
 70
0
 10
180.845700
 20
537.105480
 30
0.0
 10
364.154290
 20
537.105480
 30
0.0
  0
SPLINE
  5
227
100
AcDbEntity
  8
Layer_1
 62
7
100
AcDbSpline
 70
8
 71
3
 72
8
 73
4
 74
0
 40
0
 40
0
 40
0
 40
0
 40
1
 40
1
 40
1
 40
1
 10
446.703130
 20
180.443380
 30
0.0
 10
446.703130
 20
134.701420
 30
0.0
 10
409.896250
 20
97.894550
 30
0.0
 10
364.154290
 20
97.894550
 30
0.0
  0
LWPOLYLINE
  5
228
100
AcDbEntity
  8
Layer_1
 62
7
100
AcDbPolyline
 90
2
 70
0
 10
446.703130
 20
454.556650
 30
0.0
 10
446.703130
 20
180.443380
 30
0.0
  0
SPLINE
  5
229
100
AcDbEntity
  8
Layer_1
 62
7
100
AcDbSpline
 70
8
 71
3
 72
8
 73
4
 74
0
 40
0
 40
0
 40
0
 40
0
 40
1
 40
1
 40
1
 40
1
 10
180.845700
 20
97.894550
 30
0.0
 10
135.103740
 20
97.894550
 30
0.0
 10
98.296870
 20
134.701420
 30
0.0
 10
98.296880
 20
180.443380
 30
0.0
  0
LWPOLYLINE
  5
22a
100
AcDbEntity
  8
Layer_1
 62
7
100
AcDbPolyline
 90
2
 70
0
 10
364.154290
 20
97.894550
 30
0.0
 10
180.845700
 20
97.894550
 30
0.0
  0
SPLINE
  5
22b
100
AcDbEntity
  8
Layer_1
 62
7
100
AcDbSpline
 70
8
 71
3
 72
8
 73
4
 74
0
 40
0
 40
0
 40
0
 40
0
 40
1
 40
1
 40
1
 40
1
 10
98.296880
 20
454.556650
 30
0.0
 10
98.296870
 20
500.298610
 30
0.0
 10
135.103740
 20
537.105480
 30
0.0
 10
180.845700
 20
537.105480
 30
0.0
  0
LWPOLYLINE
  5
22c
100
AcDbEntity
  8
Layer_1
 62
7
100
AcDbPolyline
 90
2
 70
0
 10
98.296880
 20
180.443380
 30
0.0
 10
98.296880
 20
454.556650
 30
0.0
  0
LWPOLYLINE
  5
22d
100
AcDbEntity
  8
Layer_1
 62
7
100
AcDbPolyline
 90
1
 70
1
 10
180.845700
 20
537.105480
 30
0.0
  0
LWPOLYLINE
  5
22e
100
AcDbEntity
  8
Layer_1
 62
7
100
AcDbPolyline
 90
2
 70
0
 10
61.499998
 20
584.500023
 30
0.0
 10
483.500000
 20
584.500023
 30
0.0
  0
ENDSEC
  0
SECTION
  2
OBJECTS
  0
DICTIONARY
  5
C
330
0
100
AcDbDictionary
  3
ACAD_GROUP
350
D
  3
ACAD_MLINESTYLE
350
17
  0
DICTIONARY
  5
D
330
C
100
AcDbDictionary
  0
DICTIONARY
  5
1A
330
C
100
AcDbDictionary
  0
DICTIONARY
  5
17
330
C
100
AcDbDictionary
  3
STANDARD
350
18
  0
DICTIONARY
  5
19
330
C
100
AcDbDictionary
  0
ENDSEC
  0
EOF
