  0
SECTION
  2
HEADER
  9
$ACADVER
  1
AC1014
  9
$HANDSEED
  5
FFFF
  9
$MEASUREMENT
 70
     1
  0
ENDSEC
  0
SECTION
  2
TABLES
  0
TABLE
  2
VPORT
  5
8
330
0
100
AcDbSymbolTable
 70
     4
  0
VPORT
  5
2E
330
8
100
AcDbSymbolTableRecord
100
AcDbViewportTableRecord
  2
*ACTIVE
 70
     0
 10
0.0
 20
0.0
 11
1.0
 21
1.0
 12
210.0
 22
148.5
 13
0.0
 23
0.0
 14
10.0
 24
10.0
 15
10.0
 25
10.0
 16
0.0
 26
0.0
 36
1.0
 17
0.0
 27
0.0
 37
0.0
 40
341.0
 41
1.24
 42
50.0
 43
0.0
 44
0.0
 50
0.0
 51
0.0
 71
     0
 72
   100
 73
     1
 74
     3
 75
     0
 76
     0
 77
     0
 78
     0
  0
ENDTAB
  0
TABLE
  2
LTYPE
  5
5
330
0
100
AcDbSymbolTable
 70
     1
  0
LTYPE
  5
14
330
5
100
AcDbSymbolTableRecord
100
AcDbLinetypeTableRecord
  2
BYBLOCK
 70
     0
  3

 72
    65
 73
     0
 40
0.0
  0
LTYPE
  5
15
330
5
100
AcDbSymbolTableRecord
100
AcDbLinetypeTableRecord
  2
BYLAYER
 70
     0
  3

 72
    65
 73
     0
 40
0.0
  0
LTYPE
  5
16
330
5
100
AcDbSymbolTableRecord
100
AcDbLinetypeTableRecord
  2
CONTINUOUS
 70
     0
  3
Solid line
 72
    65
 73
     0
 40
0.0
  0
ENDTAB
  0
TABLE
  2
LAYER
  5
2
100
AcDbSymbolTable
 70
3
  0
LAYER
  5
50
100
AcDbSymbolTableRecord
100
AcDbLayerTableRecord
  2
0
 70
0
  6
CONTINUOUS
  0
LAYER
  5
51
100
AcDbSymbolTableRecord
100
AcDbLayerTableRecord
  2
Layer_1
 70
0
  6
CONTINUOUS
  0
LAYER
  5
52
100
AcDbSymbolTableRecord
100
AcDbLayerTableRecord
  2
newlayer
 70
0
  6
CONTINUOUS
  0
ENDTAB
  0
TABLE
  2
STYLE
  5
3
330
0
100
AcDbSymbolTable
 70
     1
  0
STYLE
  5
11
330
3
100
AcDbSymbolTableRecord
100
AcDbTextStyleTableRecord
  2
STANDARD
 70
     0
 40
0.0
 41
1.0
 50
0.0
 71
     0
 42
2.5
  3
txt
  4

  0
ENDTAB
  0
TABLE
  2
VIEW
  5
6
330
0
100
AcDbSymbolTable
 70
     0
  0
ENDTAB
  0
TABLE
  2
UCS
  5
7
330
0
100
AcDbSymbolTable
 70
     0
  0
ENDTAB
  0
TABLE
  2
APPID
  5
9
330
0
100
AcDbSymbolTable
 70
     2
  0
APPID
  5
12
330
9
100
AcDbSymbolTableRecord
100
AcDbRegAppTableRecord
  2
ACAD
 70
     0
  0
ENDTAB
  0
TABLE
  2
DIMSTYLE
  5
A
330
0
100
AcDbSymbolTable
 70
     1
  0
DIMSTYLE
105
27
330
A
100
AcDbSymbolTableRecord
100
AcDbDimStyleTableRecord
  2
ISO-25
 70
     0
  3

  4

  5

  6

  7

 40
1.0
 41
2.5
 42
0.625
 43
3.75
 44
1.25
 45
0.0
 46
0.0
 47
0.0
 48
0.0
140
2.5
141
2.5
142
0.0
143
0.03937007874016
144
1.0
145
0.0
146
1.0
147
0.625
 71
     0
 72
     0
 73
     0
 74
     0
 75
     0
 76
     0
 77
     1
 78
     8
170
     0
171
     3
172
     1
173
     0
174
     0
175
     0
176
     0
177
     0
178
     0
270
     2
271
     2
272
     2
273
     2
274
     3
340
11
275
     0
280
     0
281
     0
282
     0
283
     0
284
     8
285
     0
286
     0
287
     3
288
     0
  0
ENDTAB
  0
TABLE
  2
BLOCK_RECORD
  5
1
330
0
100
AcDbSymbolTable
 70
     1
  0
BLOCK_RECORD
  5
1F
330
1
100
AcDbSymbolTableRecord
100
AcDbBlockTableRecord
  2
*MODEL_SPACE
  0
BLOCK_RECORD
  5
1B
330
1
100
AcDbSymbolTableRecord
100
AcDbBlockTableRecord
  2
*PAPER_SPACE
  0
ENDTAB
  0
ENDSEC
  0
SECTION
  2
BLOCKS
  0
BLOCK
  5
20
330
1F
100
AcDbEntity
  8
0
100
AcDbBlockBegin
  2
*MODEL_SPACE
 70
     0
 10
0.0
 20
0.0
 30
0.0
  3
*MODEL_SPACE
  1

  0
ENDBLK
  5
21
330
1F
100
AcDbEntity
  8
0
100
AcDbBlockEnd
  0
BLOCK
  5
1C
330
1B
100
AcDbEntity
 67
     1
  8
0
100
AcDbBlockBegin
  2
*PAPER_SPACE
  1

  0
ENDBLK
  5
1D
330
1B
100
AcDbEntity
 67
     1
  8
0
100
AcDbBlockEnd
  0
ENDSEC
  0
SECTION
  2
ENTITIES
  0
LWPOLYLINE
  5
100
100
AcDbEntity
  8
Layer_1
 62
7
100
AcDbPolyline
 90
59
 70
0
 10
61.500000
 20
50.499970
 30
0.0
 10
77.714286
 20
50.499970
 30
0.0
 10
77.714286
 20
56.499970
 30
0.0
 10
92.714290
 20
56.499970
 30
0.0
 10
92.714290
 20
50.499970
 30
0.0
 10
108.928570
 20
50.499970
 30
0.0
 10
108.928570
 20
56.499970
 30
0.0
 10
123.928570
 20
56.499970
 30
0.0
 10
123.928570
 20
50.499970
 30
0.0
 10
140.142860
 20
50.499970
 30
0.0
 10
140.142860
 20
56.499970
 30
0.0
 10
155.142860
 20
56.499970
 30
0.0
 10
155.142860
 20
50.499970
 30
0.0
 10
171.357140
 20
50.499970
 30
0.0
 10
171.357140
 20
56.499970
 30
0.0
 10
186.357140
 20
56.499970
 30
0.0
 10
186.357140
 20
50.499970
 30
0.0
 10
202.571430
 20
50.499970
 30
0.0
 10
202.571430
 20
56.499970
 30
0.0
 10
217.571430
 20
56.499970
 30
0.0
 10
217.571430
 20
50.499970
 30
0.0
 10
233.785710
 20
50.499970
 30
0.0
 10
233.785710
 20
56.499970
 30
0.0
 10
248.785710
 20
56.499970
 30
0.0
 10
248.785710
 20
50.499970
 30
0.0
 10
265.000000
 20
50.499970
 30
0.0
 10
265.000000
 20
56.499970
 30
0.0
 10
280.000000
 20
56.499970
 30
0.0
 10
280.000000
 20
50.499970
 30
0.0
 10
296.214290
 20
50.499970
 30
0.0
 10
296.214290
 20
56.499970
 30
0.0
 10
311.214290
 20
56.499970
 30
0.0
 10
311.214290
 20
50.499970
 30
0.0
 10
327.428570
 20
50.499970
 30
0.0
 10
327.428570
 20
56.499970
 30
0.0
 10
342.428570
 20
56.499970
 30
0.0
 10
342.428570
 20
50.499970
 30
0.0
 10
358.642860
 20
50.499970
 30
0.0
 10
358.642860
 20
56.499970
 30
0.0
 10
373.642860
 20
56.499970
 30
0.0
 10
373.642860
 20
50.499970
 30
0.0
 10
389.857140
 20
50.499970
 30
0.0
 10
389.857140
 20
56.499970
 30
0.0
 10
404.857140
 20
56.499970
 30
0.0
 10
404.857140
 20
50.499970
 30
0.0
 10
421.071430
 20
50.499970
 30
0.0
 10
421.071430
 20
56.499970
 30
0.0
 10
436.071430
 20
56.499970
 30
0.0
 10
436.071430
 20
50.499970
 30
0.0
 10
452.285710
 20
50.499970
 30
0.0
 10
452.285710
 20
56.499970
 30
0.0
 10
467.285710
 20
56.499970
 30
0.0
 10
467.285710
 20
50.499970
 30
0.0
 10
483.500000
 20
50.499970
 30
0.0
 10
483.500000
 20
32.999970
 30
0.0
 10
477.500000
 20
32.999970
 30
0.0
 10
477.500000
 20
17.999970
 30
0.0
 10
483.500000
 20
17.999970
 30
0.0
 10
483.500000
 20
0.499970
 30
0.0
  0
LWPOLYLINE
  5
101
100
AcDbEntity
  8
Layer_1
 62
7
100
AcDbPolyline
 90
6
 70
0
 10
61.500000
 20
0.499970
 30
0.0
 10
61.500000
 20
17.999970
 30
0.0
 10
67.500000
 20
17.999970
 30
0.0
 10
67.500000
 20
32.999970
 30
0.0
 10
61.500000
 20
32.999970
 30
0.0
 10
61.500000
 20
50.499970
 30
0.0
  0
LWPOLYLINE
  5
102
100
AcDbEntity
  8
Layer_1
 62
7
100
AcDbPolyline
 90
80
 70
0
 10
0.500000
 20
587.499970
 30
0.0
 10
18.000000
 20
587.499970
 30
0.0
 10
18.000000
 20
593.499970
 30
0.0
 10
33.000000
 20
593.499970
 30
0.0
 10
33.000000
 20
587.499970
 30
0.0
 10
50.500000
 20
587.499970
 30
0.0
 10
50.500000
 20
578.111081
 30
0.0
 10
56.500000
 20
578.111081
 30
0.0
 10
56.500000
 20
563.111080
 30
0.0
 10
50.500000
 20
563.111080
 30
0.0
 10
50.500000
 20
547.722190
 30
0.0
 10
56.500000
 20
547.722190
 30
0.0
 10
56.500000
 20
532.722190
 30
0.0
 10
50.500000
 20
532.722190
 30
0.0
 10
50.500000
 20
517.333300
 30
0.0
 10
56.500000
 20
517.333300
 30
0.0
 10
56.500000
 20
502.333300
 30
0.0
 10
50.500000
 20
502.333300
 30
0.0
 10
50.500000
 20
486.944410
 30
0.0
 10
56.500000
 20
486.944410
 30
0.0
 10
56.500000
 20
471.944410
 30
0.0
 10
50.500000
 20
471.944410
 30
0.0
 10
50.500000
 20
456.555530
 30
0.0
 10
56.500000
 20
456.555530
 30
0.0
 10
56.500000
 20
441.555530
 30
0.0
 10
50.500000
 20
441.555530
 30
0.0
 10
50.500000
 20
426.166640
 30
0.0
 10
56.500000
 20
426.166640
 30
0.0
 10
56.500000
 20
411.166640
 30
0.0
 10
50.500000
 20
411.166640
 30
0.0
 10
50.500000
 20
395.777750
 30
0.0
 10
56.500000
 20
395.777750
 30
0.0
 10
56.500000
 20
380.777750
 30
0.0
 10
50.500000
 20
380.777750
 30
0.0
 10
50.500000
 20
365.388860
 30
0.0
 10
56.500000
 20
365.388860
 30
0.0
 10
56.500000
 20
350.388860
 30
0.0
 10
50.500000
 20
350.388860
 30
0.0
 10
50.500000
 20
334.999970
 30
0.0
 10
56.500000
 20
334.999970
 30
0.0
 10
56.500000
 20
319.999970
 30
0.0
 10
50.500000
 20
319.999970
 30
0.0
 10
50.500000
 20
304.611080
 30
0.0
 10
56.500000
 20
304.611080
 30
0.0
 10
56.500000
 20
289.611080
 30
0.0
 10
50.500000
 20
289.611080
 30
0.0
 10
50.500000
 20
274.222190
 30
0.0
 10
56.500000
 20
274.222190
 30
0.0
 10
56.500000
 20
259.222190
 30
0.0
 10
50.500000
 20
259.222190
 30
0.0
 10
50.500000
 20
243.833300
 30
0.0
 10
56.500000
 20
243.833300
 30
0.0
 10
56.500000
 20
228.833300
 30
0.0
 10
50.500000
 20
228.833300
 30
0.0
 10
50.500000
 20
213.444410
 30
0.0
 10
56.500000
 20
213.444410
 30
0.0
 10
56.500000
 20
198.444410
 30
0.0
 10
50.500000
 20
198.444410
 30
0.0
 10
50.500000
 20
183.055530
 30
0.0
 10
56.500000
 20
183.055530
 30
0.0
 10
56.500000
 20
168.055530
 30
0.0
 10
50.500000
 20
168.055530
 30
0.0
 10
50.500000
 20
152.666640
 30
0.0
 10
56.500000
 20
152.666640
 30
0.0
 10
56.500000
 20
137.666640
 30
0.0
 10
50.500000
 20
137.666640
 30
0.0
 10
50.500000
 20
122.277750
 30
0.0
 10
56.500000
 20
122.277750
 30
0.0
 10
56.500000
 20
107.277750
 30
0.0
 10
50.500000
 20
107.277750
 30
0.0
 10
50.500000
 20
91.888860
 30
0.0
 10
56.500000
 20
91.888860
 30
0.0
 10
56.500000
 20
76.888860
 30
0.0
 10
50.500000
 20
76.888860
 30
0.0
 10
50.500000
 20
67.499970
 30
0.0
 10
33.000000
 20
67.499970
 30
0.0
 10
33.000000
 20
61.499970
 30
0.0
 10
18.000000
 20
61.499970
 30
0.0
 10
18.000000
 20
67.499970
 30
0.0
 10
0.500000
 20
67.499970
 30
0.0
  0
LWPOLYLINE
  5
103
100
AcDbEntity
  8
Layer_1
 62
7
100
AcDbPolyline
 90
244
 70
1
 10
61.500000
 20
593.499970
 30
0.0
 10
77.714286
 20
593.499970
 30
0.0
 10
77.714286
 20
587.499970
 30
0.0
 10
92.714290
 20
587.499970
 30
0.0
 10
92.714290
 20
593.499970
 30
0.0
 10
108.928570
 20
593.499970
 30
0.0
 10
108.928570
 20
587.499970
 30
0.0
 10
123.928570
 20
587.499970
 30
0.0
 10
123.928570
 20
593.499970
 30
0.0
 10
140.142860
 20
593.499970
 30
0.0
 10
140.142860
 20
587.499970
 30
0.0
 10
155.142860
 20
587.499970
 30
0.0
 10
155.142860
 20
593.499970
 30
0.0
 10
171.357140
 20
593.499970
 30
0.0
 10
171.357140
 20
587.499970
 30
0.0
 10
186.357140
 20
587.499970
 30
0.0
 10
186.357140
 20
593.499970
 30
0.0
 10
202.571430
 20
593.499970
 30
0.0
 10
202.571430
 20
587.499970
 30
0.0
 10
217.571430
 20
587.499970
 30
0.0
 10
217.571430
 20
593.499970
 30
0.0
 10
233.785710
 20
593.499970
 30
0.0
 10
233.785710
 20
587.499970
 30
0.0
 10
248.785710
 20
587.499970
 30
0.0
 10
248.785710
 20
593.499970
 30
0.0
 10
265.000000
 20
593.499970
 30
0.0
 10
265.000000
 20
587.499970
 30
0.0
 10
280.000000
 20
587.499970
 30
0.0
 10
280.000000
 20
593.499970
 30
0.0
 10
296.214290
 20
593.499970
 30
0.0
 10
296.214290
 20
587.499970
 30
0.0
 10
311.214290
 20
587.499970
 30
0.0
 10
311.214290
 20
593.499970
 30
0.0
 10
327.428570
 20
593.499970
 30
0.0
 10
327.428570
 20
587.499970
 30
0.0
 10
342.428570
 20
587.499970
 30
0.0
 10
342.428570
 20
593.499970
 30
0.0
 10
358.642860
 20
593.499970
 30
0.0
 10
358.642860
 20
587.499970
 30
0.0
 10
373.642860
 20
587.499970
 30
0.0
 10
373.642860
 20
593.499970
 30
0.0
 10
389.857140
 20
593.499970
 30
0.0
 10
389.857140
 20
587.499970
 30
0.0
 10
404.857140
 20
587.499970
 30
0.0
 10
404.857140
 20
593.499970
 30
0.0
 10
421.071430
 20
593.499970
 30
0.0
 10
421.071430
 20
587.499970
 30
0.0
 10
436.071430
 20
587.499970
 30
0.0
 10
436.071430
 20
593.499970
 30
0.0
 10
452.285710
 20
593.499970
 30
0.0
 10
452.285710
 20
587.499970
 30
0.0
 10
467.285710
 20
587.499970
 30
0.0
 10
467.285710
 20
593.499970
 30
0.0
 10
483.500000
 20
593.499970
 30
0.0
 10
483.500000
 20
578.111081
 30
0.0
 10
477.500000
 20
578.111081
 30
0.0
 10
477.500000
 20
563.111080
 30
0.0
 10
483.500000
 20
563.111080
 30
0.0
 10
483.500000
 20
547.722190
 30
0.0
 10
477.500000
 20
547.722190
 30
0.0
 10
477.500000
 20
532.722190
 30
0.0
 10
483.500000
 20
532.722190
 30
0.0
 10
483.500000
 20
517.333300
 30
0.0
 10
477.500000
 20
517.333300
 30
0.0
 10
477.500000
 20
502.333300
 30
0.0
 10
483.500000
 20
502.333300
 30
0.0
 10
483.500000
 20
486.944410
 30
0.0
 10
477.500000
 20
486.944410
 30
0.0
 10
477.500000
 20
471.944410
 30
0.0
 10
483.500000
 20
471.944410
 30
0.0
 10
483.500000
 20
456.555530
 30
0.0
 10
477.500000
 20
456.555530
 30
0.0
 10
477.500000
 20
441.555530
 30
0.0
 10
483.500000
 20
441.555530
 30
0.0
 10
483.500000
 20
426.166640
 30
0.0
 10
477.500000
 20
426.166640
 30
0.0
 10
477.500000
 20
411.166640
 30
0.0
 10
483.500000
 20
411.166640
 30
0.0
 10
483.500000
 20
395.777750
 30
0.0
 10
477.500000
 20
395.777750
 30
0.0
 10
477.500000
 20
380.777750
 30
0.0
 10
483.500000
 20
380.777750
 30
0.0
 10
483.500000
 20
365.388860
 30
0.0
 10
477.500000
 20
365.388860
 30
0.0
 10
477.500000
 20
350.388860
 30
0.0
 10
483.500000
 20
350.388860
 30
0.0
 10
483.500000
 20
334.999970
 30
0.0
 10
477.500000
 20
334.999970
 30
0.0
 10
477.500000
 20
319.999970
 30
0.0
 10
483.500000
 20
319.999970
 30
0.0
 10
483.500000
 20
304.611080
 30
0.0
 10
477.500000
 20
304.611080
 30
0.0
 10
477.500000
 20
289.611080
 30
0.0
 10
483.500000
 20
289.611080
 30
0.0
 10
483.500000
 20
274.222190
 30
0.0
 10
477.500000
 20
274.222190
 30
0.0
 10
477.500000
 20
259.222190
 30
0.0
 10
483.500000
 20
259.222190
 30
0.0
 10
483.500000
 20
243.833300
 30
0.0
 10
477.500000
 20
243.833300
 30
0.0
 10
477.500000
 20
228.833300
 30
0.0
 10
483.500000
 20
228.833300
 30
0.0
 10
483.500000
 20
213.444410
 30
0.0
 10
477.500000
 20
213.444410
 30
0.0
 10
477.500000
 20
198.444410
 30
0.0
 10
483.500000
 20
198.444410
 30
0.0
 10
483.500000
 20
183.055530
 30
0.0
 10
477.500000
 20
183.055530
 30
0.0
 10
477.500000
 20
168.055530
 30
0.0
 10
483.500000
 20
168.055530
 30
0.0
 10
483.500000
 20
152.666640
 30
0.0
 10
477.500000
 20
152.666640
 30
0.0
 10
477.500000
 20
137.666640
 30
0.0
 10
483.500000
 20
137.666640
 30
0.0
 10
483.500000
 20
122.277750
 30
0.0
 10
477.500000
 20
122.277750
 30
0.0
 10
477.500000
 20
107.277750
 30
0.0
 10
483.500000
 20
107.277750
 30
0.0
 10
483.500000
 20
91.888860
 30
0.0
 10
477.500000
 20
91.888860
 30
0.0
 10
477.500000
 20
76.888860
 30
0.0
 10
483.500000
 20
76.888860
 30
0.0
 10
483.500000
 20
61.499970
 30
0.0
 10
467.285710
 20
61.499970
 30
0.0
 10
467.285710
 20
67.499970
 30
0.0
 10
452.285710
 20
67.499970
 30
0.0
 10
452.285710
 20
61.499970
 30
0.0
 10
436.071430
 20
61.499970
 30
0.0
 10
436.071430
 20
67.499970
 30
0.0
 10
421.071430
 20
67.499970
 30
0.0
 10
421.071430
 20
61.499970
 30
0.0
 10
404.857140
 20
61.499970
 30
0.0
 10
404.857140
 20
67.499970
 30
0.0
 10
389.857140
 20
67.499970
 30
0.0
 10
389.857140
 20
61.499970
 30
0.0
 10
373.642860
 20
61.499970
 30
0.0
 10
373.642860
 20
67.499970
 30
0.0
 10
358.642860
 20
67.499970
 30
0.0
 10
358.642860
 20
61.499970
 30
0.0
 10
342.428570
 20
61.499970
 30
0.0
 10
342.428570
 20
67.499970
 30
0.0
 10
327.428570
 20
67.499970
 30
0.0
 10
327.428570
 20
61.499970
 30
0.0
 10
311.214290
 20
61.499970
 30
0.0
 10
311.214290
 20
67.499970
 30
0.0
 10
296.214290
 20
67.499970
 30
0.0
 10
296.214290
 20
61.499970
 30
0.0
 10
280.000000
 20
61.499970
 30
0.0
 10
280.000000
 20
67.499970
 30
0.0
 10
265.000000
 20
67.499970
 30
0.0
 10
265.000000
 20
61.499970
 30
0.0
 10
248.785710
 20
61.499970
 30
0.0
 10
248.785710
 20
67.499970
 30
0.0
 10
233.785710
 20
67.499970
 30
0.0
 10
233.785710
 20
61.499970
 30
0.0
 10
217.571430
 20
61.499970
 30
0.0
 10
217.571430
 20
67.499970
 30
0.0
 10
202.571430
 20
67.499970
 30
0.0
 10
202.571430
 20
61.499970
 30
0.0
 10
186.357140
 20
61.499970
 30
0.0
 10
186.357140
 20
67.499970
 30
0.0
 10
171.357140
 20
67.499970
 30
0.0
 10
171.357140
 20
61.499970
 30
0.0
 10
155.142860
 20
61.499970
 30
0.0
 10
155.142860
 20
67.499970
 30
0.0
 10
140.142860
 20
67.499970
 30
0.0
 10
140.142860
 20
61.499970
 30
0.0
 10
123.928570
 20
61.499970
 30
0.0
 10
123.928570
 20
67.499970
 30
0.0
 10
108.928570
 20
67.499970
 30
0.0
 10
108.928570
 20
61.499970
 30
0.0
 10
92.714290
 20
61.499970
 30
0.0
 10
92.714290
 20
67.499970
 30
0.0
 10
77.714286
 20
67.499970
 30
0.0
 10
77.714286
 20
61.499970
 30
0.0
 10
61.500000
 20
61.499970
 30
0.0
 10
61.500000
 20
76.888860
 30
0.0
 10
67.500000
 20
76.888860
 30
0.0
 10
67.500000
 20
91.888860
 30
0.0
 10
61.500000
 20
91.888860
 30
0.0
 10
61.500000
 20
107.277750
 30
0.0
 10
67.500000
 20
107.277750
 30
0.0
 10
67.500000
 20
122.277750
 30
0.0
 10
61.500000
 20
122.277750
 30
0.0
 10
61.500000
 20
137.666640
 30
0.0
 10
67.500000
 20
137.666640
 30
0.0
 10
67.500000
 20
152.666640
 30
0.0
 10
61.500000
 20
152.666640
 30
0.0
 10
61.500000
 20
168.055530
 30
0.0
 10
67.500000
 20
168.055530
 30
0.0
 10
67.500000
 20
183.055530
 30
0.0
 10
61.500000
 20
183.055530
 30
0.0
 10
61.500000
 20
198.444410
 30
0.0
 10
67.500000
 20
198.444410
 30
0.0
 10
67.500000
 20
213.444410
 30
0.0
 10
61.500000
 20
213.444410
 30
0.0
 10
61.500000
 20
228.833300
 30
0.0
 10
67.500000
 20
228.833300
 30
0.0
 10
67.500000
 20
243.833300
 30
0.0
 10
61.500000
 20
243.833300
 30
0.0
 10
61.500000
 20
259.222190
 30
0.0
 10
67.500000
 20
259.222190
 30
0.0
 10
67.500000
 20
274.222190
 30
0.0
 10
61.500000
 20
274.222190
 30
0.0
 10
61.500000
 20
289.611080
 30
0.0
 10
67.500000
 20
289.611080
 30
0.0
 10
67.500000
 20
304.611080
 30
0.0
 10
61.500000
 20
304.611080
 30
0.0
 10
61.500000
 20
319.999970
 30
0.0
 10
67.500000
 20
319.999970
 30
0.0
 10
67.500000
 20
334.999970
 30
0.0
 10
61.500000
 20
334.999970
 30
0.0
 10
61.500000
 20
350.388860
 30
0.0
 10
67.500000
 20
350.388860
 30
0.0
 10
67.500000
 20
365.388860
 30
0.0
 10
61.500000
 20
365.388860
 30
0.0
 10
61.500000
 20
380.777750
 30
0.0
 10
67.500000
 20
380.777750
 30
0.0
 10
67.500000
 20
395.777750
 30
0.0
 10
61.500000
 20
395.777750
 30
0.0
 10
61.500000
 20
411.166640
 30
0.0
 10
67.500000
 20
411.166640
 30
0.0
 10
67.500000
 20
426.166640
 30
0.0
 10
61.500000
 20
426.166640
 30
0.0
 10
61.500000
 20
441.555530
 30
0.0
 10
67.500000
 20
441.555530
 30
0.0
 10
67.500000
 20
456.555530
 30
0.0
 10
61.500000
 20
456.555530
 30
0.0
 10
61.500000
 20
471.944410
 30
0.0
 10
67.500000
 20
471.944410
 30
0.0
 10
67.500000
 20
486.944410
 30
0.0
 10
61.500000
 20
486.944410
 30
0.0
 10
61.500000
 20
502.333300
 30
0.0
 10
67.500000
 20
502.333300
 30
0.0
 10
67.500000
 20
517.333300
 30
0.0
 10
61.500000
 20
517.333300
 30
0.0
 10
61.500000
 20
532.722190
 30
0.0
 10
67.500000
 20
532.722190
 30
0.0
 10
67.500000
 20
547.722190
 30
0.0
 10
61.500000
 20
547.722190
 30
0.0
 10
61.500000
 20
563.111080
 30
0.0
 10
67.500000
 20
563.111080
 30
0.0
 10
67.500000
 20
578.111081
 30
0.0
 10
61.500000
 20
578.111081
 30
0.0
  0
LWPOLYLINE
  5
104
100
AcDbEntity
  8
Layer_1
 62
7
100
AcDbPolyline
 90
6
 70
0
 10
494.500000
 20
587.499970
 30
0.0
 10
512.000000
 20
587.499970
 30
0.0
 10
512.000000
 20
593.499970
 30
0.0
 10
527.000000
 20
593.499970
 30
0.0
 10
527.000000
 20
587.499970
 30
0.0
 10
544.500000
 20
587.499970
 30
0.0
  0
LWPOLYLINE
  5
105
100
AcDbEntity
  8
Layer_1
 62
7
100
AcDbPolyline
 90
75
 70
0
 10
544.500000
 20
67.499970
 30
0.0
 10
527.000000
 20
67.499970
 30
0.0
 10
527.000000
 20
61.499970
 30
0.0
 10
512.000000
 20
61.499970
 30
0.0
 10
512.000000
 20
67.499970
 30
0.0
 10
494.500000
 20
67.499970
 30
0.0
 10
494.500000
 20
76.888860
 30
0.0
 10
488.500000
 20
76.888860
 30
0.0
 10
488.500000
 20
91.888860
 30
0.0
 10
494.500000
 20
91.888860
 30
0.0
 10
494.500000
 20
107.277750
 30
0.0
 10
488.500000
 20
107.277750
 30
0.0
 10
488.500000
 20
122.277750
 30
0.0
 10
494.500000
 20
122.277750
 30
0.0
 10
494.500000
 20
137.666640
 30
0.0
 10
488.500000
 20
137.666640
 30
0.0
 10
488.500000
 20
152.666640
 30
0.0
 10
494.500000
 20
152.666640
 30
0.0
 10
494.500000
 20
168.055530
 30
0.0
 10
488.500000
 20
168.055530
 30
0.0
 10
488.500000
 20
183.055530
 30
0.0
 10
494.500000
 20
183.055530
 30
0.0
 10
494.500000
 20
198.444410
 30
0.0
 10
488.500000
 20
198.444410
 30
0.0
 10
488.500000
 20
213.444410
 30
0.0
 10
494.500000
 20
213.444410
 30
0.0
 10
494.500000
 20
228.833300
 30
0.0
 10
488.500000
 20
228.833300
 30
0.0
 10
488.500000
 20
243.833300
 30
0.0
 10
494.500000
 20
243.833300
 30
0.0
 10
494.500000
 20
259.222190
 30
0.0
 10
488.500000
 20
259.222190
 30
0.0
 10
488.500000
 20
274.222190
 30
0.0
 10
494.500000
 20
274.222190
 30
0.0
 10
494.500000
 20
289.611080
 30
0.0
 10
488.500000
 20
289.611080
 30
0.0
 10
488.500000
 20
304.611080
 30
0.0
 10
494.500000
 20
304.611080
 30
0.0
 10
494.500000
 20
319.999970
 30
0.0
 10
488.500000
 20
319.999970
 30
0.0
 10
488.500000
 20
334.999970
 30
0.0
 10
494.500000
 20
334.999970
 30
0.0
 10
494.500000
 20
350.388860
 30
0.0
 10
488.500000
 20
350.388860
 30
0.0
 10
488.500000
 20
365.388860
 30
0.0
 10
494.500000
 20
365.388860
 30
0.0
 10
494.500000
 20
380.777750
 30
0.0
 10
488.500000
 20
380.777750
 30
0.0
 10
488.500000
 20
395.777750
 30
0.0
 10
494.500000
 20
395.777750
 30
0.0
 10
494.500000
 20
411.166640
 30
0.0
 10
488.500000
 20
411.166640
 30
0.0
 10
488.500000
 20
426.166640
 30
0.0
 10
494.500000
 20
426.166640
 30
0.0
 10
494.500000
 20
441.555530
 30
0.0
 10
488.500000
 20
441.555530
 30
0.0
 10
488.500000
 20
456.555530
 30
0.0
 10
494.500000
 20
456.555530
 30
0.0
 10
494.500000
 20
471.944410
 30
0.0
 10
488.500000
 20
471.944410
 30
0.0
 10
488.500000
 20
486.944410
 30
0.0
 10
494.500000
 20
486.944410
 30
0.0
 10
494.500000
 20
502.333300
 30
0.0
 10
488.500000
 20
502.333300
 30
0.0
 10
488.500000
 20
517.333300
 30
0.0
 10
494.500000
 20
517.333300
 30
0.0
 10
494.500000
 20
532.722190
 30
0.0
 10
488.500000
 20
532.722190
 30
0.0
 10
488.500000
 20
547.722190
 30
0.0
 10
494.500000
 20
547.722190
 30
0.0
 10
494.500000
 20
563.111080
 30
0.0
 10
488.500000
 20
563.111080
 30
0.0
 10
488.500000
 20
578.111081
 30
0.0
 10
494.500000
 20
578.111081
 30
0.0
 10
494.500000
 20
587.499970
 30
0.0
  0
LWPOLYLINE
  5
106
100
AcDbEntity
  8
Layer_1
 62
7
100
AcDbPolyline
 90
6
 70
0
 10
483.500000
 20
654.499970
 30
0.0
 10
483.500000
 20
636.999970
 30
0.0
 10
477.500000
 20
636.999970
 30
0.0
 10
477.500000
 20
621.999970
 30
0.0
 10
483.500000
 20
621.999970
 30
0.0
 10
483.500000
 20
604.499970
 30
0.0
  0
LWPOLYLINE
  5
107
100
AcDbEntity
  8
Layer_1
 62
7
100
AcDbPolyline
 90
6
 70
0
 10
61.500000
 20
604.499970
 30
0.0
 10
61.500000
 20
621.999970
 30
0.0
 10
67.500000
 20
621.999970
 30
0.0
 10
67.500000
 20
636.999970
 30
0.0
 10
61.500000
 20
636.999970
 30
0.0
 10
61.500000
 20
654.499970
 30
0.0
  0
LWPOLYLINE
  5
108
100
AcDbEntity
  8
Layer_1
 62
7
100
AcDbPolyline
 90
4
 70
1
 10
92.714320
 20
660.499970
 30
0.0
 10
108.928607
 20
660.499970
 30
0.0
 10
108.928607
 20
654.499970
 30
0.0
 10
92.714320
 20
654.499970
 30
0.0
  0
LWPOLYLINE
  5
109
100
AcDbEntity
  8
Layer_1
 62
7
100
AcDbPolyline
 90
4
 70
1
 10
123.928600
 20
660.499970
 30
0.0
 10
140.142887
 20
660.499970
 30
0.0
 10
140.142887
 20
654.499970
 30
0.0
 10
123.928600
 20
654.499970
 30
0.0
  0
LWPOLYLINE
  5
10a
100
AcDbEntity
  8
Layer_1
 62
7
100
AcDbPolyline
 90
4
 70
1
 10
155.142910
 20
660.499970
 30
0.0
 10
171.357197
 20
660.499970
 30
0.0
 10
171.357197
 20
654.499970
 30
0.0
 10
155.142910
 20
654.499970
 30
0.0
  0
LWPOLYLINE
  5
10b
100
AcDbEntity
  8
Layer_1
 62
7
100
AcDbPolyline
 90
4
 70
1
 10
186.357180
 20
660.499970
 30
0.0
 10
202.571467
 20
660.499970
 30
0.0
 10
202.571467
 20
654.499970
 30
0.0
 10
186.357180
 20
654.499970
 30
0.0
  0
LWPOLYLINE
  5
10c
100
AcDbEntity
  8
Layer_1
 62
7
100
AcDbPolyline
 90
4
 70
1
 10
217.571490
 20
660.499970
 30
0.0
 10
233.785777
 20
660.499970
 30
0.0
 10
233.785777
 20
654.499970
 30
0.0
 10
217.571490
 20
654.499970
 30
0.0
  0
LWPOLYLINE
  5
10d
100
AcDbEntity
  8
Layer_1
 62
7
100
AcDbPolyline
 90
4
 70
1
 10
248.785770
 20
660.499970
 30
0.0
 10
265.000057
 20
660.499970
 30
0.0
 10
265.000057
 20
654.499970
 30
0.0
 10
248.785770
 20
654.499970
 30
0.0
  0
LWPOLYLINE
  5
10e
100
AcDbEntity
  8
Layer_1
 62
7
100
AcDbPolyline
 90
4
 70
1
 10
280.000060
 20
660.499970
 30
0.0
 10
296.214347
 20
660.499970
 30
0.0
 10
296.214347
 20
654.499970
 30
0.0
 10
280.000060
 20
654.499970
 30
0.0
  0
LWPOLYLINE
  5
10f
100
AcDbEntity
  8
Layer_1
 62
7
100
AcDbPolyline
 90
4
 70
1
 10
311.214320
 20
660.499970
 30
0.0
 10
327.428607
 20
660.499970
 30
0.0
 10
327.428607
 20
654.499970
 30
0.0
 10
311.214320
 20
654.499970
 30
0.0
  0
LWPOLYLINE
  5
110
100
AcDbEntity
  8
Layer_1
 62
7
100
AcDbPolyline
 90
4
 70
1
 10
342.428620
 20
660.499970
 30
0.0
 10
358.642907
 20
660.499970
 30
0.0
 10
358.642907
 20
654.499970
 30
0.0
 10
342.428620
 20
654.499970
 30
0.0
  0
LWPOLYLINE
  5
111
100
AcDbEntity
  8
Layer_1
 62
7
100
AcDbPolyline
 90
4
 70
1
 10
373.642880
 20
660.499970
 30
0.0
 10
389.857167
 20
660.499970
 30
0.0
 10
389.857167
 20
654.499970
 30
0.0
 10
373.642880
 20
654.499970
 30
0.0
  0
LWPOLYLINE
  5
112
100
AcDbEntity
  8
Layer_1
 62
7
100
AcDbPolyline
 90
4
 70
1
 10
404.857210
 20
660.499970
 30
0.0
 10
421.071497
 20
660.499970
 30
0.0
 10
421.071497
 20
654.499970
 30
0.0
 10
404.857210
 20
654.499970
 30
0.0
  0
LWPOLYLINE
  5
113
100
AcDbEntity
  8
Layer_1
 62
7
100
AcDbPolyline
 90
4
 70
1
 10
436.071440
 20
660.499970
 30
0.0
 10
452.285727
 20
660.499970
 30
0.0
 10
452.285727
 20
654.499970
 30
0.0
 10
436.071440
 20
654.499970
 30
0.0
  0
LWPOLYLINE
  5
114
100
AcDbEntity
  8
Layer_1
 62
7
100
AcDbPolyline
 90
10
 70
0
 10
61.500043
 20
654.499968
 30
0.0
 10
77.714333
 20
654.499968
 30
0.0
 10
77.714333
 20
660.499968
 30
0.0
 10
61.500043
 20
660.499968
 30
0.0
 10
61.500043
 20
832.479860
 30
0.0
 10
483.500040
 20
832.479860
 30
0.0
 10
483.500040
 20
660.499968
 30
0.0
 10
467.285740
 20
660.499968
 30
0.0
 10
467.285740
 20
654.499968
 30
0.0
 10
483.500040
 20
654.499968
 30
0.0
  0
LWPOLYLINE
  5
115
100
AcDbEntity
  8
Layer_1
 62
7
100
AcDbPolyline
 90
2
 70
0
 10
0.500000
 20
587.499971
 30
0.0
 10
0.500000
 20
67.499970
 30
0.0
  0
LWPOLYLINE
  5
116
100
AcDbEntity
  8
Layer_1
 62
7
100
AcDbPolyline
 90
2
 70
0
 10
61.499998
 20
0.499990
 30
0.0
 10
483.499990
 20
0.499990
 30
0.0
  0
SPLINE
  5
117
100
AcDbEntity
  8
Layer_1
 62
7
100
AcDbSpline
 70
8
 71
3
 72
8
 73
4
 74
0
 40
0
 40
0
 40
0
 40
0
 40
1
 40
1
 40
1
 40
1
 10
101.936869
 20
742.747757
 30
0.0
 10
100.848185
 20
742.747757
 30
0.0
 10
98.476416
 20
742.974359
 30
0.0
 10
94.821560
 20
743.427561
 30
0.0
  0
SPLINE
  5
118
100
AcDbEntity
  8
Layer_1
 62
7
100
AcDbSpline
 70
8
 71
3
 72
8
 73
4
 74
0
 40
0
 40
0
 40
0
 40
0
 40
1
 40
1
 40
1
 40
1
 10
94.821560
 20
743.427561
 30
0.0
 10
94.510508
 20
738.163440
 30
0.0
 10
94.354982
 20
728.942512
 30
0.0
 10
94.354982
 20
715.764778
 30
0.0
  0
SPLINE
  5
119
100
AcDbEntity
  8
Layer_1
 62
7
100
AcDbSpline
 70
8
 71
3
 72
8
 73
4
 74
0
 40
0
 40
0
 40
0
 40
0
 40
1
 40
1
 40
1
 40
1
 10
94.354982
 20
715.764778
 30
0.0
 10
94.354982
 20
714.370309
 30
0.0
 10
93.849523
 20
713.185010
 30
0.0
 10
92.838605
 20
712.208882
 30
0.0
  0
SPLINE
  5
11a
100
AcDbEntity
  8
Layer_1
 62
7
100
AcDbSpline
 70
8
 71
3
 72
8
 73
4
 74
0
 40
0
 40
0
 40
0
 40
0
 40
1
 40
1
 40
1
 40
1
 10
92.838605
 20
712.208882
 30
0.0
 10
91.827688
 20
711.267614
 30
0.0
 10
90.564041
 20
710.796981
 30
0.0
 10
89.047664
 20
710.796981
 30
0.0
  0
SPLINE
  5
11b
100
AcDbEntity
  8
Layer_1
 62
7
100
AcDbSpline
 70
8
 71
3
 72
8
 73
4
 74
0
 40
0
 40
0
 40
0
 40
0
 40
1
 40
1
 40
1
 40
1
 10
89.047664
 20
710.796981
 30
0.0
 10
87.492407
 20
710.796981
 30
0.0
 10
86.209319
 20
711.267614
 30
0.0
 10
85.198401
 20
712.208882
 30
0.0
  0
SPLINE
  5
11c
100
AcDbEntity
  8
Layer_1
 62
7
100
AcDbSpline
 70
8
 71
3
 72
8
 73
4
 74
0
 40
0
 40
0
 40
0
 40
0
 40
1
 40
1
 40
1
 40
1
 10
85.198401
 20
712.208882
 30
0.0
 10
84.187484
 20
713.185010
 30
0.0
 10
83.682025
 20
714.370309
 30
0.0
 10
83.682025
 20
715.764778
 30
0.0
  0
LWPOLYLINE
  5
11d
100
AcDbEntity
  8
Layer_1
 62
7
100
AcDbPolyline
 90
2
 70
0
 10
544.499990
 20
67.499970
 30
0.0
 10
544.499990
 20
587.499971
 30
0.0
  0
SPLINE
  5
11e
100
AcDbEntity
  8
Layer_1
 62
7
100
AcDbSpline
 70
8
 71
3
 72
8
 73
4
 74
0
 40
0
 40
0
 40
0
 40
0
 40
1
 40
1
 40
1
 40
1
 10
83.682025
 20
731.138801
 30
0.0
 10
83.682025
 20
736.263475
 30
0.0
 10
84.031958
 20
743.479853
 30
0.0
 10
84.731824
 20
752.787935
 30
0.0
  0
SPLINE
  5
11f
100
AcDbEntity
  8
Layer_1
 62
7
100
AcDbSpline
 70
8
 71
3
 72
8
 73
4
 74
0
 40
0
 40
0
 40
0
 40
0
 40
1
 40
1
 40
1
 40
1
 10
84.731824
 20
752.787935
 30
0.0
 10
85.509453
 20
762.862975
 30
0.0
 10
85.937149
 20
770.079352
 30
0.0
 10
86.014913
 20
774.437066
 30
0.0
  0
LWPOLYLINE
  5
120
100
AcDbEntity
  8
Layer_1
 62
7
100
AcDbPolyline
 90
2
 70
0
 10
83.682025
 20
715.764778
 30
0.0
 10
83.682025
 20
731.138801
 30
0.0
  0
SPLINE
  5
121
100
AcDbEntity
  8
Layer_1
 62
7
100
AcDbSpline
 70
8
 71
3
 72
8
 73
4
 74
0
 40
0
 40
0
 40
0
 40
0
 40
1
 40
1
 40
1
 40
1
 10
86.014913
 20
781.653452
 30
0.0
 10
86.014913
 20
785.104764
 30
0.0
 10
86.248201
 20
787.614808
 30
0.0
 10
86.714778
 20
789.183584
 30
0.0
  0
SPLINE
  5
122
100
AcDbEntity
  8
Layer_1
 62
7
100
AcDbSpline
 70
8
 71
3
 72
8
 73
4
 74
0
 40
0
 40
0
 40
0
 40
0
 40
1
 40
1
 40
1
 40
1
 10
86.714778
 20
789.183584
 30
0.0
 10
87.609051
 20
792.251414
 30
0.0
 10
89.514242
 20
793.576160
 30
0.0
 10
92.430350
 20
793.157820
 30
0.0
  0
SPLINE
  5
123
100
AcDbEntity
  8
Layer_1
 62
7
100
AcDbSpline
 70
8
 71
3
 72
8
 73
4
 74
0
 40
0
 40
0
 40
0
 40
0
 40
1
 40
1
 40
1
 40
1
 10
92.430350
 20
793.157820
 30
0.0
 10
93.674557
 20
793.506436
 30
0.0
 10
95.443662
 20
793.767900
 30
0.0
 10
97.737668
 20
793.942212
 30
0.0
  0
SPLINE
  5
124
100
AcDbEntity
  8
Layer_1
 62
7
100
AcDbSpline
 70
8
 71
3
 72
8
 73
4
 74
0
 40
0
 40
0
 40
0
 40
0
 40
1
 40
1
 40
1
 40
1
 10
97.737668
 20
793.942212
 30
0.0
 10
100.031674
 20
794.116517
 30
0.0
 10
102.850579
 20
794.203669
 30
0.0
 10
106.194381
 20
794.203669
 30
0.0
  0
SPLINE
  5
125
100
AcDbEntity
  8
Layer_1
 62
7
100
AcDbSpline
 70
8
 71
3
 72
8
 73
4
 74
0
 40
0
 40
0
 40
0
 40
0
 40
1
 40
1
 40
1
 40
1
 10
106.194381
 20
794.203669
 30
0.0
 10
113.309683
 20
794.203669
 30
0.0
 10
119.977852
 20
792.024812
 30
0.0
 10
126.198887
 20
787.667099
 30
0.0
  0
SPLINE
  5
126
100
AcDbEntity
  8
Layer_1
 62
7
100
AcDbSpline
 70
8
 71
3
 72
8
 73
4
 74
0
 40
0
 40
0
 40
0
 40
0
 40
1
 40
1
 40
1
 40
1
 10
126.198887
 20
787.667099
 30
0.0
 10
133.042024
 20
782.856180
 30
0.0
 10
136.463592
 20
777.069133
 30
0.0
 10
136.463592
 20
770.305957
 30
0.0
  0
SPLINE
  5
127
100
AcDbEntity
  8
Layer_1
 62
7
100
AcDbSpline
 70
8
 71
3
 72
8
 73
4
 74
0
 40
0
 40
0
 40
0
 40
0
 40
1
 40
1
 40
1
 40
1
 10
136.463592
 20
770.305957
 30
0.0
 10
136.463592
 20
761.660246
 30
0.0
 10
132.808736
 20
754.775054
 30
0.0
 10
125.499023
 20
749.650380
 30
0.0
  0
SPLINE
  5
128
100
AcDbEntity
  8
Layer_1
 62
7
100
AcDbSpline
 70
8
 71
3
 72
8
 73
4
 74
0
 40
0
 40
0
 40
0
 40
0
 40
1
 40
1
 40
1
 40
1
 10
125.499023
 20
749.650380
 30
0.0
 10
118.966937
 20
745.048631
 30
0.0
 10
111.112886
 20
742.747757
 30
0.0
 10
101.936869
 20
742.747757
 30
0.0
  0
LWPOLYLINE
  5
129
100
AcDbEntity
  8
Layer_1
 62
7
100
AcDbPolyline
 90
2
 70
0
 10
86.014913
 20
774.437066
 30
0.0
 10
86.014913
 20
781.653452
 30
0.0
  0
SPLINE
  5
12a
100
AcDbEntity
  8
Layer_1
 62
7
100
AcDbSpline
 70
8
 71
3
 72
8
 73
4
 74
0
 40
0
 40
0
 40
0
 40
0
 40
1
 40
1
 40
1
 40
1
 10
104.852969
 20
784.268075
 30
0.0
 10
103.142191
 20
784.268075
 30
0.0
 10
101.606375
 20
784.233213
 30
0.0
 10
100.245521
 20
784.163490
 30
0.0
  0
SPLINE
  5
12b
100
AcDbEntity
  8
Layer_1
 62
7
100
AcDbSpline
 70
8
 71
3
 72
8
 73
4
 74
0
 40
0
 40
0
 40
0
 40
0
 40
1
 40
1
 40
1
 40
1
 10
100.245521
 20
784.163490
 30
0.0
 10
98.923552
 20
784.093767
 30
0.0
 10
97.795990
 20
783.989182
 30
0.0
 10
96.862835
 20
783.849735
 30
0.0
  0
LWPOLYLINE
  5
12c
100
AcDbEntity
  8
Layer_1
 62
7
100
AcDbPolyline
 90
1
 70
1
 10
101.936869
 20
742.747757
 30
0.0
  0
SPLINE
  5
12d
100
AcDbEntity
  8
Layer_1
 62
7
100
AcDbSpline
 70
8
 71
3
 72
8
 73
4
 74
0
 40
0
 40
0
 40
0
 40
0
 40
1
 40
1
 40
1
 40
1
 10
101.936869
 20
752.735643
 30
0.0
 10
108.468948
 20
752.735643
 30
0.0
 10
113.970670
 20
754.217266
 30
0.0
 10
118.442034
 20
757.180513
 30
0.0
  0
SPLINE
  5
12e
100
AcDbEntity
  8
Layer_1
 62
7
100
AcDbSpline
 70
8
 71
3
 72
8
 73
4
 74
0
 40
0
 40
0
 40
0
 40
0
 40
1
 40
1
 40
1
 40
1
 10
118.442034
 20
757.180513
 30
0.0
 10
123.341097
 20
760.422654
 30
0.0
 10
125.790628
 20
764.797802
 30
0.0
 10
125.790628
 20
770.305957
 30
0.0
  0
SPLINE
  5
12f
100
AcDbEntity
  8
Layer_1
 62
7
100
AcDbSpline
 70
8
 71
3
 72
8
 73
4
 74
0
 40
0
 40
0
 40
0
 40
0
 40
1
 40
1
 40
1
 40
1
 10
125.790628
 20
770.305957
 30
0.0
 10
125.790628
 20
774.210467
 30
0.0
 10
123.457741
 20
777.574622
 30
0.0
 10
118.791966
 20
780.398424
 30
0.0
  0
SPLINE
  5
130
100
AcDbEntity
  8
Layer_1
 62
7
100
AcDbSpline
 70
8
 71
3
 72
8
 73
4
 74
0
 40
0
 40
0
 40
0
 40
0
 40
1
 40
1
 40
1
 40
1
 10
118.791966
 20
780.398424
 30
0.0
 10
114.476127
 20
782.978191
 30
0.0
 10
109.829795
 20
784.268075
 30
0.0
 10
104.852969
 20
784.268075
 30
0.0
  0
LWPOLYLINE
  5
131
100
AcDbEntity
  8
Layer_1
 62
7
100
AcDbPolyline
 90
4
 70
0
 10
96.862835
 20
783.849735
 30
0.0
 10
96.746191
 20
774.227896
 30
0.0
 10
95.521425
 20
753.415447
 30
0.0
 10
101.936869
 20
752.735643
 30
0.0
  0
SPLINE
  5
132
100
AcDbEntity
  8
Layer_1
 62
7
100
AcDbSpline
 70
8
 71
3
 72
8
 73
4
 74
0
 40
0
 40
0
 40
0
 40
0
 40
1
 40
1
 40
1
 40
1
 10
199.801461
 20
714.196000
 30
0.0
 10
195.407859
 20
712.348328
 30
0.0
 10
188.506402
 20
710.692396
 30
0.0
 10
179.097090
 20
709.228203
 30
0.0
  0
SPLINE
  5
133
100
AcDbEntity
  8
Layer_1
 62
7
100
AcDbSpline
 70
8
 71
3
 72
8
 73
4
 74
0
 40
0
 40
0
 40
0
 40
0
 40
1
 40
1
 40
1
 40
1
 10
179.097090
 20
709.228203
 30
0.0
 10
170.426527
 20
707.868596
 30
0.0
 10
163.350106
 20
707.188792
 30
0.0
 10
157.867827
 20
707.188792
 30
0.0
  0
SPLINE
  5
134
100
AcDbEntity
  8
Layer_1
 62
7
100
AcDbSpline
 70
8
 71
3
 72
8
 73
4
 74
0
 40
0
 40
0
 40
0
 40
0
 40
1
 40
1
 40
1
 40
1
 10
157.867827
 20
707.188792
 30
0.0
 10
153.940801
 20
707.188792
 30
0.0
 10
151.121895
 20
707.729149
 30
0.0
 10
149.411110
 20
708.809863
 30
0.0
  0
SPLINE
  5
135
100
AcDbEntity
  8
Layer_1
 62
7
100
AcDbSpline
 70
8
 71
3
 72
8
 73
4
 74
0
 40
0
 40
0
 40
0
 40
0
 40
1
 40
1
 40
1
 40
1
 10
149.411110
 20
708.809863
 30
0.0
 10
147.078222
 20
710.274055
 30
0.0
 10
145.911779
 20
712.958408
 30
0.0
 10
145.911779
 20
716.862922
 30
0.0
  0
LWPOLYLINE
  5
136
100
AcDbEntity
  8
Layer_1
 62
7
100
AcDbPolyline
 90
1
 70
1
 10
104.852969
 20
784.268075
 30
0.0
  0
SPLINE
  5
137
100
AcDbEntity
  8
Layer_1
 62
7
100
AcDbSpline
 70
8
 71
3
 72
8
 73
4
 74
0
 40
0
 40
0
 40
0
 40
0
 40
1
 40
1
 40
1
 40
1
 10
147.078219
 20
734.171772
 30
0.0
 10
148.089140
 20
750.138444
 30
0.0
 10
148.594601
 20
767.848202
 30
0.0
 10
148.594601
 20
787.301047
 30
0.0
  0
SPLINE
  5
138
100
AcDbEntity
  8
Layer_1
 62
7
100
AcDbSpline
 70
8
 71
3
 72
8
 73
4
 74
0
 40
0
 40
0
 40
0
 40
0
 40
1
 40
1
 40
1
 40
1
 10
148.594601
 20
787.301047
 30
0.0
 10
148.594601
 20
788.800100
 30
0.0
 10
149.138940
 20
790.072554
 30
0.0
 10
150.227618
 20
791.118410
 30
0.0
  0
SPLINE
  5
139
100
AcDbEntity
  8
Layer_1
 62
7
100
AcDbSpline
 70
8
 71
3
 72
8
 73
4
 74
0
 40
0
 40
0
 40
0
 40
0
 40
1
 40
1
 40
1
 40
1
 10
150.227618
 20
791.118410
 30
0.0
 10
151.355180
 20
792.164259
 30
0.0
 10
152.735473
 20
792.687183
 30
0.0
 10
154.368496
 20
792.687183
 30
0.0
  0
SPLINE
  5
13a
100
AcDbEntity
  8
Layer_1
 62
7
100
AcDbSpline
 70
8
 71
3
 72
8
 73
4
 74
0
 40
0
 40
0
 40
0
 40
0
 40
1
 40
1
 40
1
 40
1
 10
154.368496
 20
792.687183
 30
0.0
 10
156.040397
 20
792.687183
 30
0.0
 10
157.420686
 20
792.164259
 30
0.0
 10
158.509364
 20
791.118410
 30
0.0
  0
SPLINE
  5
13b
100
AcDbEntity
  8
Layer_1
 62
7
100
AcDbSpline
 70
8
 71
3
 72
8
 73
4
 74
0
 40
0
 40
0
 40
0
 40
0
 40
1
 40
1
 40
1
 40
1
 10
158.509364
 20
791.118410
 30
0.0
 10
159.636926
 20
790.072554
 30
0.0
 10
160.200707
 20
788.800100
 30
0.0
 10
160.200707
 20
787.301047
 30
0.0
  0
SPLINE
  5
13c
100
AcDbEntity
  8
Layer_1
 62
7
100
AcDbSpline
 70
8
 71
3
 72
8
 73
4
 74
0
 40
0
 40
0
 40
0
 40
0
 40
1
 40
1
 40
1
 40
1
 10
160.200707
 20
787.301047
 30
0.0
 10
160.200707
 20
767.604170
 30
0.0
 10
159.675811
 20
749.685241
 30
0.0
 10
158.626018
 20
733.544260
 30
0.0
  0
LWPOLYLINE
  5
13d
100
AcDbEntity
  8
Layer_1
 62
7
100
AcDbPolyline
 90
2
 70
0
 10
145.911779
 20
716.862922
 30
0.0
 10
147.078219
 20
734.171772
 30
0.0
  0
SPLINE
  5
13e
100
AcDbEntity
  8
Layer_1
 62
7
100
AcDbSpline
 70
8
 71
3
 72
8
 73
4
 74
0
 40
0
 40
0
 40
0
 40
0
 40
1
 40
1
 40
1
 40
1
 10
157.867827
 20
725.595786
 30
0.0
 10
157.556776
 20
722.702262
 30
0.0
 10
157.440132
 20
720.139925
 30
0.0
 10
157.517895
 20
717.908774
 30
0.0
  0
SPLINE
  5
13f
100
AcDbEntity
  8
Layer_1
 62
7
100
AcDbSpline
 70
8
 71
3
 72
8
 73
4
 74
0
 40
0
 40
0
 40
0
 40
0
 40
1
 40
1
 40
1
 40
1
 10
157.517895
 20
717.908774
 30
0.0
 10
167.665949
 20
717.804189
 30
0.0
 10
180.496825
 20
719.948186
 30
0.0
 10
196.010525
 20
724.340763
 30
0.0
  0
SPLINE
  5
140
100
AcDbEntity
  8
Layer_1
 62
7
100
AcDbSpline
 70
8
 71
3
 72
8
 73
4
 74
0
 40
0
 40
0
 40
0
 40
0
 40
1
 40
1
 40
1
 40
1
 10
196.010525
 20
724.340763
 30
0.0
 10
196.671511
 20
724.515072
 30
0.0
 10
197.293613
 20
724.602227
 30
0.0
 10
197.876829
 20
724.602227
 30
0.0
  0
SPLINE
  5
141
100
AcDbEntity
  8
Layer_1
 62
7
100
AcDbSpline
 70
8
 71
3
 72
8
 73
4
 74
0
 40
0
 40
0
 40
0
 40
0
 40
1
 40
1
 40
1
 40
1
 10
197.876829
 20
724.602227
 30
0.0
 10
199.548730
 20
724.602227
 30
0.0
 10
200.948462
 20
724.009577
 30
0.0
 10
202.076024
 20
722.824279
 30
0.0
  0
SPLINE
  5
142
100
AcDbEntity
  8
Layer_1
 62
7
100
AcDbSpline
 70
8
 71
3
 72
8
 73
4
 74
0
 40
0
 40
0
 40
0
 40
0
 40
1
 40
1
 40
1
 40
1
 10
202.076024
 20
722.824279
 30
0.0
 10
203.048061
 20
721.743565
 30
0.0
 10
203.534080
 20
720.505973
 30
0.0
 10
203.534080
 20
719.111504
 30
0.0
  0
SPLINE
  5
143
100
AcDbEntity
  8
Layer_1
 62
7
100
AcDbSpline
 70
8
 71
3
 72
8
 73
4
 74
0
 40
0
 40
0
 40
0
 40
0
 40
1
 40
1
 40
1
 40
1
 10
203.534080
 20
719.111504
 30
0.0
 10
203.534080
 20
716.880353
 30
0.0
 10
202.289873
 20
715.241852
 30
0.0
 10
199.801461
 20
714.196000
 30
0.0
  0
LWPOLYLINE
  5
144
100
AcDbEntity
  8
Layer_1
 62
7
100
AcDbPolyline
 90
2
 70
0
 10
158.626018
 20
733.544260
 30
0.0
 10
157.867827
 20
725.595786
 30
0.0
  0
SPLINE
  5
145
100
AcDbEntity
  8
Layer_1
 62
7
100
AcDbSpline
 70
8
 71
3
 72
8
 73
4
 74
0
 40
0
 40
0
 40
0
 40
0
 40
1
 40
1
 40
1
 40
1
 10
278.711353
 20
710.483226
 30
0.0
 10
275.134263
 20
710.483226
 30
0.0
 10
272.023748
 20
714.596910
 30
0.0
 10
269.379810
 20
722.824279
 30
0.0
  0
SPLINE
  5
146
100
AcDbEntity
  8
Layer_1
 62
7
100
AcDbSpline
 70
8
 71
3
 72
8
 73
4
 74
0
 40
0
 40
0
 40
0
 40
0
 40
1
 40
1
 40
1
 40
1
 10
269.379810
 20
722.824279
 30
0.0
 10
268.368896
 20
725.961834
 30
0.0
 10
267.105247
 20
731.452556
 30
0.0
 10
265.588864
 20
739.296446
 30
0.0
  0
SPLINE
  5
147
100
AcDbEntity
  8
Layer_1
 62
7
100
AcDbSpline
 70
8
 71
3
 72
8
 73
4
 74
0
 40
0
 40
0
 40
0
 40
0
 40
1
 40
1
 40
1
 40
1
 10
265.588864
 20
739.296446
 30
0.0
 10
261.622961
 20
738.808381
 30
0.0
 10
256.432290
 20
737.936838
 30
0.0
 10
250.016851
 20
736.681816
 30
0.0
  0
LWPOLYLINE
  5
148
100
AcDbEntity
  8
Layer_1
 62
7
100
AcDbPolyline
 90
1
 70
1
 10
199.801461
 20
714.196000
 30
0.0
  0
SPLINE
  5
149
100
AcDbEntity
  8
Layer_1
 62
7
100
AcDbSpline
 70
8
 71
3
 72
8
 73
4
 74
0
 40
0
 40
0
 40
0
 40
0
 40
1
 40
1
 40
1
 40
1
 10
234.503155
 20
733.805724
 30
0.0
 10
232.559081
 20
729.238837
 30
0.0
 10
229.234718
 20
722.562815
 30
0.0
 10
224.530066
 20
713.777659
 30
0.0
  0
SPLINE
  5
14a
100
AcDbEntity
  8
Layer_1
 62
7
100
AcDbSpline
 70
8
 71
3
 72
8
 73
4
 74
0
 40
0
 40
0
 40
0
 40
0
 40
1
 40
1
 40
1
 40
1
 10
224.530066
 20
713.777659
 30
0.0
 10
223.285856
 20
711.825402
 30
0.0
 10
221.594512
 20
710.849274
 30
0.0
 10
219.456035
 20
710.849274
 30
0.0
  0
SPLINE
  5
14b
100
AcDbEntity
  8
Layer_1
 62
7
100
AcDbSpline
 70
8
 71
3
 72
8
 73
4
 74
0
 40
0
 40
0
 40
0
 40
0
 40
1
 40
1
 40
1
 40
1
 10
219.456035
 20
710.849274
 30
0.0
 10
217.900775
 20
710.849274
 30
0.0
 10
216.501043
 20
711.354769
 30
0.0
 10
215.256840
 20
712.365759
 30
0.0
  0
SPLINE
  5
14c
100
AcDbEntity
  8
Layer_1
 62
7
100
AcDbSpline
 70
8
 71
3
 72
8
 73
4
 74
0
 40
0
 40
0
 40
0
 40
0
 40
1
 40
1
 40
1
 40
1
 10
215.256840
 20
712.365759
 30
0.0
 10
214.051515
 20
713.376749
 30
0.0
 10
213.448853
 20
714.631771
 30
0.0
 10
213.448853
 20
716.130826
 30
0.0
  0
SPLINE
  5
14d
100
AcDbEntity
  8
Layer_1
 62
7
100
AcDbSpline
 70
8
 71
3
 72
8
 73
4
 74
0
 40
0
 40
0
 40
0
 40
0
 40
1
 40
1
 40
1
 40
1
 10
213.448853
 20
716.130826
 30
0.0
 10
213.448853
 20
717.804189
 30
0.0
 10
216.384402
 20
724.166455
 30
0.0
 10
222.255502
 20
735.217623
 30
0.0
  0
SPLINE
  5
14e
100
AcDbEntity
  8
Layer_1
 62
7
100
AcDbSpline
 70
8
 71
3
 72
8
 73
4
 74
0
 40
0
 40
0
 40
0
 40
0
 40
1
 40
1
 40
1
 40
1
 10
222.255502
 20
735.217623
 30
0.0
 10
221.594516
 20
736.124029
 30
0.0
 10
221.264023
 20
737.169880
 30
0.0
 10
221.264023
 20
738.355179
 30
0.0
  0
SPLINE
  5
14f
100
AcDbEntity
  8
Layer_1
 62
7
100
AcDbSpline
 70
8
 71
3
 72
8
 73
4
 74
0
 40
0
 40
0
 40
0
 40
0
 40
1
 40
1
 40
1
 40
1
 10
221.264023
 20
738.355179
 30
0.0
 10
221.264023
 20
741.178979
 30
0.0
 10
223.169212
 20
742.991789
 30
0.0
 10
226.979590
 20
743.793609
 30
0.0
  0
SPLINE
  5
150
100
AcDbEntity
  8
Layer_1
 62
7
100
AcDbSpline
 70
8
 71
3
 72
8
 73
4
 74
0
 40
0
 40
0
 40
0
 40
0
 40
1
 40
1
 40
1
 40
1
 10
226.979590
 20
743.793609
 30
0.0
 10
231.412077
 20
751.254019
 30
0.0
 10
237.011007
 20
759.830005
 30
0.0
 10
243.776381
 20
769.521566
 30
0.0
  0
SPLINE
  5
151
100
AcDbEntity
  8
Layer_1
 62
7
100
AcDbSpline
 70
8
 71
3
 72
8
 73
4
 74
0
 40
0
 40
0
 40
0
 40
0
 40
1
 40
1
 40
1
 40
1
 10
243.776381
 20
769.521566
 30
0.0
 10
252.991283
 20
782.734160
 30
0.0
 10
258.726296
 20
789.340457
 30
0.0
 10
260.981420
 20
789.340457
 30
0.0
  0
SPLINE
  5
152
100
AcDbEntity
  8
Layer_1
 62
7
100
AcDbSpline
 70
8
 71
3
 72
8
 73
4
 74
0
 40
0
 40
0
 40
0
 40
0
 40
1
 40
1
 40
1
 40
1
 10
260.981420
 20
789.340457
 30
0.0
 10
264.053050
 20
789.340457
 30
0.0
 10
266.152645
 20
787.423064
 30
0.0
 10
267.280208
 20
783.588278
 30
0.0
  0
LWPOLYLINE
  5
153
100
AcDbEntity
  8
Layer_1
 62
7
100
AcDbPolyline
 90
2
 70
0
 10
250.016851
 20
736.681816
 30
0.0
 10
234.503155
 20
733.805724
 30
0.0
  0
SPLINE
  5
154
100
AcDbEntity
  8
Layer_1
 62
7
100
AcDbSpline
 70
8
 71
3
 72
8
 73
4
 74
0
 40
0
 40
0
 40
0
 40
0
 40
1
 40
1
 40
1
 40
1
 10
282.968875
 20
721.412378
 30
0.0
 10
284.096437
 20
718.588578
 30
0.0
 10
284.660219
 20
716.706044
 30
0.0
 10
284.660219
 20
715.764778
 30
0.0
  0
SPLINE
  5
155
100
AcDbEntity
  8
Layer_1
 62
7
100
AcDbSpline
 70
8
 71
3
 72
8
 73
4
 74
0
 40
0
 40
0
 40
0
 40
0
 40
1
 40
1
 40
1
 40
1
 10
284.660219
 20
715.764778
 30
0.0
 10
284.660219
 20
714.265723
 30
0.0
 10
284.057556
 20
713.010701
 30
0.0
 10
282.852231
 20
711.999711
 30
0.0
  0
SPLINE
  5
156
100
AcDbEntity
  8
Layer_1
 62
7
100
AcDbSpline
 70
8
 71
3
 72
8
 73
4
 74
0
 40
0
 40
0
 40
0
 40
0
 40
1
 40
1
 40
1
 40
1
 10
282.852231
 20
711.999711
 30
0.0
 10
281.646906
 20
710.988721
 30
0.0
 10
280.266613
 20
710.483226
 30
0.0
 10
278.711353
 20
710.483226
 30
0.0
  0
LWPOLYLINE
  5
157
100
AcDbEntity
  8
Layer_1
 62
7
100
AcDbPolyline
 90
4
 70
0
 10
267.280208
 20
783.588278
 30
0.0
 10
270.954510
 20
766.017958
 30
0.0
 10
279.644515
 20
729.674609
 30
0.0
 10
282.968875
 20
721.412378
 30
0.0
  0
LWPOLYLINE
  5
158
100
AcDbEntity
  8
Layer_1
 62
7
100
AcDbPolyline
 90
1
 70
1
 10
278.711353
 20
710.483226
 30
0.0
  0
SPLINE
  5
159
100
AcDbEntity
  8
Layer_1
 62
7
100
AcDbSpline
 70
8
 71
3
 72
8
 73
4
 74
0
 40
0
 40
0
 40
0
 40
0
 40
1
 40
1
 40
1
 40
1
 10
241.443490
 20
746.146776
 30
0.0
 10
246.148149
 20
747.227489
 30
0.0
 10
253.282894
 20
748.534804
 30
0.0
 10
262.847725
 20
750.068720
 30
0.0
  0
LWPOLYLINE
  5
15a
100
AcDbEntity
  8
Layer_1
 62
7
100
AcDbPolyline
 90
2
 70
0
 10
258.123637
 20
770.253660
 30
0.0
 10
241.443490
 20
746.146776
 30
0.0
  0
SPLINE
  5
15b
100
AcDbEntity
  8
Layer_1
 62
7
100
AcDbSpline
 70
8
 71
3
 72
8
 73
4
 74
0
 40
0
 40
0
 40
0
 40
0
 40
1
 40
1
 40
1
 40
1
 10
300.990423
 20
725.072860
 30
0.0
 10
300.951559
 20
726.537053
 30
0.0
 10
301.495901
 20
727.722352
 30
0.0
 10
302.623449
 20
728.628757
 30
0.0
  0
SPLINE
  5
15c
100
AcDbEntity
  8
Layer_1
 62
7
100
AcDbSpline
 70
8
 71
3
 72
8
 73
4
 74
0
 40
0
 40
0
 40
0
 40
0
 40
1
 40
1
 40
1
 40
1
 10
302.623449
 20
728.628757
 30
0.0
 10
303.789890
 20
729.570023
 30
0.0
 10
305.209060
 20
730.040657
 30
0.0
 10
306.880961
 20
730.040657
 30
0.0
  0
SPLINE
  5
15d
100
AcDbEntity
  8
Layer_1
 62
7
100
AcDbSpline
 70
8
 71
3
 72
8
 73
4
 74
0
 40
0
 40
0
 40
0
 40
0
 40
1
 40
1
 40
1
 40
1
 10
306.880961
 20
730.040657
 30
0.0
 10
308.786157
 20
730.040657
 30
0.0
 10
310.458062
 20
729.064528
 30
0.0
 10
311.896675
 20
727.112271
 30
0.0
  0
SPLINE
  5
15e
100
AcDbEntity
  8
Layer_1
 62
7
100
AcDbSpline
 70
8
 71
3
 72
8
 73
4
 74
0
 40
0
 40
0
 40
0
 40
0
 40
1
 40
1
 40
1
 40
1
 10
311.896675
 20
727.112271
 30
0.0
 10
313.879627
 20
724.462779
 30
0.0
 10
315.648733
 20
722.667400
 30
0.0
 10
317.203993
 20
721.726133
 30
0.0
  0
SPLINE
  5
15f
100
AcDbEntity
  8
Layer_1
 62
7
100
AcDbSpline
 70
8
 71
3
 72
8
 73
4
 74
0
 40
0
 40
0
 40
0
 40
0
 40
1
 40
1
 40
1
 40
1
 10
317.203993
 20
721.726133
 30
0.0
 10
320.508911
 20
719.773877
 30
0.0
 10
325.310768
 20
718.797748
 30
0.0
 10
331.609566
 20
718.797748
 30
0.0
  0
SPLINE
  5
160
100
AcDbEntity
  8
Layer_1
 62
7
100
AcDbSpline
 70
8
 71
3
 72
8
 73
4
 74
0
 40
0
 40
0
 40
0
 40
0
 40
1
 40
1
 40
1
 40
1
 10
331.609566
 20
718.797748
 30
0.0
 10
337.636191
 20
718.797748
 30
0.0
 10
343.235118
 20
719.965616
 30
0.0
 10
348.406346
 20
722.301352
 30
0.0
  0
SPLINE
  5
161
100
AcDbEntity
  8
Layer_1
 62
7
100
AcDbSpline
 70
8
 71
3
 72
8
 73
4
 74
0
 40
0
 40
0
 40
0
 40
0
 40
1
 40
1
 40
1
 40
1
 10
348.406346
 20
722.301352
 30
0.0
 10
355.016195
 20
725.299461
 30
0.0
 10
358.321119
 20
729.465437
 30
0.0
 10
358.321119
 20
734.799282
 30
0.0
  0
SPLINE
  5
162
100
AcDbEntity
  8
Layer_1
 62
7
100
AcDbSpline
 70
8
 71
3
 72
8
 73
4
 74
0
 40
0
 40
0
 40
0
 40
0
 40
1
 40
1
 40
1
 40
1
 10
358.321119
 20
734.799282
 30
0.0
 10
358.321119
 20
739.191860
 30
0.0
 10
355.541095
 20
742.660603
 30
0.0
 10
349.981046
 20
745.205509
 30
0.0
  0
SPLINE
  5
163
100
AcDbEntity
  8
Layer_1
 62
7
100
AcDbSpline
 70
8
 71
3
 72
8
 73
4
 74
0
 40
0
 40
0
 40
0
 40
0
 40
1
 40
1
 40
1
 40
1
 10
349.981046
 20
745.205509
 30
0.0
 10
345.276393
 20
747.401798
 30
0.0
 10
339.463618
 20
748.587096
 30
0.0
 10
332.542718
 20
748.761405
 30
0.0
  0
SPLINE
  5
164
100
AcDbEntity
  8
Layer_1
 62
7
100
AcDbSpline
 70
8
 71
3
 72
8
 73
4
 74
0
 40
0
 40
0
 40
0
 40
0
 40
1
 40
1
 40
1
 40
1
 10
332.542718
 20
748.761405
 30
0.0
 10
326.399453
 20
748.970576
 30
0.0
 10
321.169897
 20
750.173305
 30
0.0
 10
316.854051
 20
752.369595
 30
0.0
  0
SPLINE
  5
165
100
AcDbEntity
  8
Layer_1
 62
7
100
AcDbSpline
 70
8
 71
3
 72
8
 73
4
 74
0
 40
0
 40
0
 40
0
 40
0
 40
1
 40
1
 40
1
 40
1
 10
316.854051
 20
752.369595
 30
0.0
 10
311.332887
 20
755.193395
 30
0.0
 10
308.572305
 20
759.237357
 30
0.0
 10
308.572305
 20
764.501481
 30
0.0
  0
SPLINE
  5
166
100
AcDbEntity
  8
Layer_1
 62
7
100
AcDbSpline
 70
8
 71
3
 72
8
 73
4
 74
0
 40
0
 40
0
 40
0
 40
0
 40
1
 40
1
 40
1
 40
1
 10
308.572305
 20
764.501481
 30
0.0
 10
308.572305
 20
770.706865
 30
0.0
 10
312.499330
 20
776.371894
 30
0.0
 10
320.353382
 20
781.496570
 30
0.0
  0
SPLINE
  5
167
100
AcDbEntity
  8
Layer_1
 62
7
100
AcDbSpline
 70
8
 71
3
 72
8
 73
4
 74
0
 40
0
 40
0
 40
0
 40
0
 40
1
 40
1
 40
1
 40
1
 10
320.353382
 20
781.496570
 30
0.0
 10
327.857505
 20
786.342353
 30
0.0
 10
335.614355
 20
788.765245
 30
0.0
 10
343.623931
 20
788.765245
 30
0.0
  0
SPLINE
  5
168
100
AcDbEntity
  8
Layer_1
 62
7
100
AcDbSpline
 70
8
 71
3
 72
8
 73
4
 74
0
 40
0
 40
0
 40
0
 40
0
 40
1
 40
1
 40
1
 40
1
 10
343.623931
 20
788.765245
 30
0.0
 10
347.395432
 20
788.765245
 30
0.0
 10
351.652950
 20
788.190026
 30
0.0
 10
356.396488
 20
787.039589
 30
0.0
  0
SPLINE
  5
169
100
AcDbEntity
  8
Layer_1
 62
7
100
AcDbSpline
 70
8
 71
3
 72
8
 73
4
 74
0
 40
0
 40
0
 40
0
 40
0
 40
1
 40
1
 40
1
 40
1
 10
356.396488
 20
787.039589
 30
0.0
 10
362.695279
 20
785.540529
 30
0.0
 10
365.844674
 20
783.623133
 30
0.0
 10
365.844674
 20
781.287401
 30
0.0
  0
SPLINE
  5
16a
100
AcDbEntity
  8
Layer_1
 62
7
100
AcDbSpline
 70
8
 71
3
 72
8
 73
4
 74
0
 40
0
 40
0
 40
0
 40
0
 40
1
 40
1
 40
1
 40
1
 10
365.844674
 20
781.287401
 30
0.0
 10
365.844674
 20
778.219570
 30
0.0
 10
364.095010
 20
776.685655
 30
0.0
 10
360.595683
 20
776.685655
 30
0.0
  0
SPLINE
  5
16b
100
AcDbEntity
  8
Layer_1
 62
7
100
AcDbSpline
 70
8
 71
3
 72
8
 73
4
 74
0
 40
0
 40
0
 40
0
 40
0
 40
1
 40
1
 40
1
 40
1
 10
360.595683
 20
776.685655
 30
0.0
 10
359.040422
 20
776.685655
 30
0.0
 10
356.318722
 20
777.051701
 30
0.0
 10
352.430581
 20
777.783792
 30
0.0
  0
SPLINE
  5
16c
100
AcDbEntity
  8
Layer_1
 62
7
100
AcDbSpline
 70
8
 71
3
 72
8
 73
4
 74
0
 40
0
 40
0
 40
0
 40
0
 40
1
 40
1
 40
1
 40
1
 10
352.430581
 20
777.783792
 30
0.0
 10
348.542433
 20
778.550754
 30
0.0
 10
345.529120
 20
778.916803
 30
0.0
 10
343.390643
 20
778.881938
 30
0.0
  0
SPLINE
  5
16d
100
AcDbEntity
  8
Layer_1
 62
7
100
AcDbSpline
 70
8
 71
3
 72
8
 73
4
 74
0
 40
0
 40
0
 40
0
 40
0
 40
1
 40
1
 40
1
 40
1
 10
343.390643
 20
778.881938
 30
0.0
 10
337.325140
 20
778.812215
 30
0.0
 10
332.173347
 20
777.470041
 30
0.0
 10
327.935264
 20
774.855415
 30
0.0
  0
SPLINE
  5
16e
100
AcDbEntity
  8
Layer_1
 62
7
100
AcDbSpline
 70
8
 71
3
 72
8
 73
4
 74
0
 40
0
 40
0
 40
0
 40
0
 40
1
 40
1
 40
1
 40
1
 10
327.935264
 20
774.855415
 30
0.0
 10
323.580547
 20
772.171060
 30
0.0
 10
321.403189
 20
768.911486
 30
0.0
 10
321.403189
 20
765.076693
 30
0.0
  0
SPLINE
  5
16f
100
AcDbEntity
  8
Layer_1
 62
7
100
AcDbSpline
 70
8
 71
3
 72
8
 73
4
 74
0
 40
0
 40
0
 40
0
 40
0
 40
1
 40
1
 40
1
 40
1
 10
321.403189
 20
765.076693
 30
0.0
 10
321.403189
 20
762.183171
 30
0.0
 10
324.280415
 20
760.143760
 30
0.0
 10
330.034867
 20
758.958462
 30
0.0
  0
SPLINE
  5
170
100
AcDbEntity
  8
Layer_1
 62
7
100
AcDbSpline
 70
8
 71
3
 72
8
 73
4
 74
0
 40
0
 40
0
 40
0
 40
0
 40
1
 40
1
 40
1
 40
1
 10
330.034867
 20
758.958462
 30
0.0
 10
332.173344
 20
758.505259
 30
0.0
 10
336.314219
 20
758.086918
 30
0.0
 10
342.457491
 20
757.703439
 30
0.0
  0
SPLINE
  5
171
100
AcDbEntity
  8
Layer_1
 62
7
100
AcDbSpline
 70
8
 71
3
 72
8
 73
4
 74
0
 40
0
 40
0
 40
0
 40
0
 40
1
 40
1
 40
1
 40
1
 10
342.457491
 20
757.703439
 30
0.0
 10
351.361342
 20
757.110790
 30
0.0
 10
358.321119
 20
754.600745
 30
0.0
 10
363.336822
 20
750.173305
 30
0.0
  0
SPLINE
  5
172
100
AcDbEntity
  8
Layer_1
 62
7
100
AcDbSpline
 70
8
 71
3
 72
8
 73
4
 74
0
 40
0
 40
0
 40
0
 40
0
 40
1
 40
1
 40
1
 40
1
 10
363.336822
 20
750.173305
 30
0.0
 10
367.924834
 20
746.129345
 30
0.0
 10
370.218840
 20
741.196410
 30
0.0
 10
370.218840
 20
735.374501
 30
0.0
  0
SPLINE
  5
173
100
AcDbEntity
  8
Layer_1
 62
7
100
AcDbSpline
 70
8
 71
3
 72
8
 73
4
 74
0
 40
0
 40
0
 40
0
 40
0
 40
1
 40
1
 40
1
 40
1
 10
370.218840
 20
735.374501
 30
0.0
 10
370.218840
 20
727.077409
 30
0.0
 10
365.941883
 20
720.453680
 30
0.0
 10
357.387967
 20
715.503315
 30
0.0
  0
SPLINE
  5
174
100
AcDbEntity
  8
Layer_1
 62
7
100
AcDbSpline
 70
8
 71
3
 72
8
 73
4
 74
0
 40
0
 40
0
 40
0
 40
0
 40
1
 40
1
 40
1
 40
1
 10
357.387967
 20
715.503315
 30
0.0
 10
349.961607
 20
711.215322
 30
0.0
 10
341.349364
 20
709.071325
 30
0.0
 10
331.551239
 20
709.071325
 30
0.0
  0
SPLINE
  5
175
100
AcDbEntity
  8
Layer_1
 62
7
100
AcDbSpline
 70
8
 71
3
 72
8
 73
4
 74
0
 40
0
 40
0
 40
0
 40
0
 40
1
 40
1
 40
1
 40
1
 10
331.551239
 20
709.071325
 30
0.0
 10
324.435936
 20
709.071325
 30
0.0
 10
317.923296
 20
710.291486
 30
0.0
 10
312.013319
 20
712.731807
 30
0.0
  0
SPLINE
  5
176
100
AcDbEntity
  8
Layer_1
 62
7
100
AcDbSpline
 70
8
 71
3
 72
8
 73
4
 74
0
 40
0
 40
0
 40
0
 40
0
 40
1
 40
1
 40
1
 40
1
 10
312.013319
 20
712.731807
 30
0.0
 10
304.781369
 20
715.729916
 30
0.0
 10
301.107070
 20
719.843600
 30
0.0
 10
300.990423
 20
725.072860
 30
0.0
  0
LWPOLYLINE
  5
177
100
AcDbEntity
  8
Layer_1
 62
7
100
AcDbPolyline
 90
2
 70
0
 10
262.847725
 20
750.068720
 30
0.0
 10
258.123637
 20
770.253660
 30
0.0
  0
SPLINE
  5
178
100
AcDbEntity
  8
Layer_1
 62
7
100
AcDbSpline
 70
8
 71
3
 72
8
 73
4
 74
0
 40
0
 40
0
 40
0
 40
0
 40
1
 40
1
 40
1
 40
1
 10
455.427520
 20
778.097547
 30
0.0
 10
452.550294
 20
778.097547
 30
0.0
 10
448.117807
 20
778.306720
 30
0.0
 10
442.130060
 20
778.725066
 30
0.0
  0
SPLINE
  5
179
100
AcDbEntity
  8
Layer_1
 62
7
100
AcDbSpline
 70
8
 71
3
 72
8
 73
4
 74
0
 40
0
 40
0
 40
0
 40
0
 40
1
 40
1
 40
1
 40
1
 10
442.130060
 20
778.725066
 30
0.0
 10
436.297845
 20
779.108541
 30
0.0
 10
431.865362
 20
779.282849
 30
0.0
 10
428.832610
 20
779.247990
 30
0.0
  0
LWPOLYLINE
  5
17a
100
AcDbEntity
  8
Layer_1
 62
7
100
AcDbPolyline
 90
1
 70
1
 10
300.990423
 20
725.072860
 30
0.0
  0
SPLINE
  5
17b
100
AcDbEntity
  8
Layer_1
 62
7
100
AcDbSpline
 70
8
 71
3
 72
8
 73
4
 74
0
 40
0
 40
0
 40
0
 40
0
 40
1
 40
1
 40
1
 40
1
 10
424.691732
 20
779.247990
 30
0.0
 10
424.808380
 20
774.437072
 30
0.0
 10
425.333280
 20
766.628044
 30
0.0
 10
426.266432
 20
755.820906
 30
0.0
  0
SPLINE
  5
17c
100
AcDbEntity
  8
Layer_1
 62
7
100
AcDbSpline
 70
8
 71
3
 72
8
 73
4
 74
0
 40
0
 40
0
 40
0
 40
0
 40
1
 40
1
 40
1
 40
1
 10
426.266432
 20
755.820906
 30
0.0
 10
427.121828
 20
745.745866
 30
0.0
 10
427.549526
 20
737.919407
 30
0.0
 10
427.549526
 20
732.341530
 30
0.0
  0
SPLINE
  5
17d
100
AcDbEntity
  8
Layer_1
 62
7
100
AcDbSpline
 70
8
 71
3
 72
8
 73
4
 74
0
 40
0
 40
0
 40
0
 40
0
 40
1
 40
1
 40
1
 40
1
 10
427.549526
 20
732.341530
 30
0.0
 10
427.549526
 20
731.121370
 30
0.0
 10
427.685609
 20
729.273698
 30
0.0
 10
427.957775
 20
726.798515
 30
0.0
  0
SPLINE
  5
17e
100
AcDbEntity
  8
Layer_1
 62
7
100
AcDbSpline
 70
8
 71
3
 72
8
 73
4
 74
0
 40
0
 40
0
 40
0
 40
0
 40
1
 40
1
 40
1
 40
1
 10
427.957775
 20
726.798515
 30
0.0
 10
428.229948
 20
724.323332
 30
0.0
 10
428.366034
 20
722.458230
 30
0.0
 10
428.366034
 20
721.203208
 30
0.0
  0
SPLINE
  5
17f
100
AcDbEntity
  8
Layer_1
 62
7
100
AcDbSpline
 70
8
 71
3
 72
8
 73
4
 74
0
 40
0
 40
0
 40
0
 40
0
 40
1
 40
1
 40
1
 40
1
 10
428.366034
 20
721.203208
 30
0.0
 10
428.366034
 20
718.832610
 30
0.0
 10
427.938336
 20
716.793199
 30
0.0
 10
427.082940
 20
715.084974
 30
0.0
  0
SPLINE
  5
180
100
AcDbEntity
  8
Layer_1
 62
7
100
AcDbSpline
 70
8
 71
3
 72
8
 73
4
 74
0
 40
0
 40
0
 40
0
 40
0
 40
1
 40
1
 40
1
 40
1
 10
427.082940
 20
715.084974
 30
0.0
 10
425.994262
 20
712.784100
 30
0.0
 10
424.302922
 20
711.633663
 30
0.0
 10
422.008920
 20
711.633663
 30
0.0
  0
SPLINE
  5
181
100
AcDbEntity
  8
Layer_1
 62
7
100
AcDbSpline
 70
8
 71
3
 72
8
 73
4
 74
0
 40
0
 40
0
 40
0
 40
0
 40
1
 40
1
 40
1
 40
1
 10
422.008920
 20
711.633663
 30
0.0
 10
420.453659
 20
711.633663
 30
0.0
 10
419.053928
 20
712.121727
 30
0.0
 10
417.809725
 20
713.097855
 30
0.0
  0
SPLINE
  5
182
100
AcDbEntity
  8
Layer_1
 62
7
100
AcDbSpline
 70
8
 71
3
 72
8
 73
4
 74
0
 40
0
 40
0
 40
0
 40
0
 40
1
 40
1
 40
1
 40
1
 10
417.809725
 20
713.097855
 30
0.0
 10
416.565515
 20
714.073983
 30
0.0
 10
415.943410
 20
715.329006
 30
0.0
 10
415.943410
 20
716.862922
 30
0.0
  0
SPLINE
  5
183
100
AcDbEntity
  8
Layer_1
 62
7
100
AcDbSpline
 70
8
 71
3
 72
8
 73
4
 74
0
 40
0
 40
0
 40
0
 40
0
 40
1
 40
1
 40
1
 40
1
 10
415.943410
 20
716.862922
 30
0.0
 10
415.943410
 20
717.385848
 30
0.0
 10
416.040615
 20
718.170237
 30
0.0
 10
416.235025
 20
719.216089
 30
0.0
  0
SPLINE
  5
184
100
AcDbEntity
  8
Layer_1
 62
7
100
AcDbSpline
 70
8
 71
3
 72
8
 73
4
 74
0
 40
0
 40
0
 40
0
 40
0
 40
1
 40
1
 40
1
 40
1
 10
416.235025
 20
719.216089
 30
0.0
 10
416.429428
 20
720.261941
 30
0.0
 10
416.526630
 20
721.046330
 30
0.0
 10
416.526630
 20
721.569256
 30
0.0
  0
SPLINE
  5
185
100
AcDbEntity
  8
Layer_1
 62
7
100
AcDbSpline
 70
8
 71
3
 72
8
 73
4
 74
0
 40
0
 40
0
 40
0
 40
0
 40
1
 40
1
 40
1
 40
1
 10
416.526630
 20
721.569256
 30
0.0
 10
416.526630
 20
723.277480
 30
0.0
 10
416.390547
 20
725.839817
 30
0.0
 10
416.118381
 20
729.256267
 30
0.0
  0
SPLINE
  5
186
100
AcDbEntity
  8
Layer_1
 62
7
100
AcDbSpline
 70
8
 71
3
 72
8
 73
4
 74
0
 40
0
 40
0
 40
0
 40
0
 40
1
 40
1
 40
1
 40
1
 10
416.118381
 20
729.256267
 30
0.0
 10
415.885093
 20
732.672717
 30
0.0
 10
415.768449
 20
735.252485
 30
0.0
 10
415.768449
 20
736.995572
 30
0.0
  0
SPLINE
  5
187
100
AcDbEntity
  8
Layer_1
 62
7
100
AcDbSpline
 70
8
 71
3
 72
8
 73
4
 74
0
 40
0
 40
0
 40
0
 40
0
 40
1
 40
1
 40
1
 40
1
 10
415.768449
 20
736.995572
 30
0.0
 10
415.768449
 20
741.980799
 30
0.0
 10
415.321312
 20
748.988007
 30
0.0
 10
414.427038
 20
758.017195
 30
0.0
  0
SPLINE
  5
188
100
AcDbEntity
  8
Layer_1
 62
7
100
AcDbSpline
 70
8
 71
3
 72
8
 73
4
 74
0
 40
0
 40
0
 40
0
 40
0
 40
1
 40
1
 40
1
 40
1
 10
414.427038
 20
758.017195
 30
0.0
 10
413.493879
 20
767.778480
 30
0.0
 10
412.968979
 20
774.785688
 30
0.0
 10
412.852338
 20
779.038820
 30
0.0
  0
LWPOLYLINE
  5
189
100
AcDbEntity
  8
Layer_1
 62
7
100
AcDbPolyline
 90
2
 70
0
 10
428.832610
 20
779.247990
 30
0.0
 10
424.691732
 20
779.247990
 30
0.0
  0
SPLINE
  5
18a
100
AcDbEntity
  8
Layer_1
 62
7
100
AcDbSpline
 70
8
 71
3
 72
8
 73
4
 74
0
 40
0
 40
0
 40
0
 40
0
 40
1
 40
1
 40
1
 40
1
 10
407.545020
 20
778.986552
 30
0.0
 10
399.029982
 20
778.986552
 30
0.0
 10
392.342374
 20
779.544341
 30
0.0
 10
387.482197
 20
780.659920
 30
0.0
  0
SPLINE
  5
18b
100
AcDbEntity
  8
Layer_1
 62
7
100
AcDbSpline
 70
8
 71
3
 72
8
 73
4
 74
0
 40
0
 40
0
 40
0
 40
0
 40
1
 40
1
 40
1
 40
1
 10
387.482197
 20
780.659920
 30
0.0
 10
384.332798
 20
781.392017
 30
0.0
 10
382.758098
 20
783.117673
 30
0.0
 10
382.758098
 20
785.836886
 30
0.0
  0
SPLINE
  5
18c
100
AcDbEntity
  8
Layer_1
 62
7
100
AcDbSpline
 70
8
 71
3
 72
8
 73
4
 74
0
 40
0
 40
0
 40
0
 40
0
 40
1
 40
1
 40
1
 40
1
 10
382.758098
 20
785.836886
 30
0.0
 10
382.758098
 20
787.266217
 30
0.0
 10
383.263556
 20
788.521239
 30
0.0
 10
384.274470
 20
789.601952
 30
0.0
  0
SPLINE
  5
18d
100
AcDbEntity
  8
Layer_1
 62
7
100
AcDbSpline
 70
8
 71
3
 72
8
 73
4
 74
0
 40
0
 40
0
 40
0
 40
0
 40
1
 40
1
 40
1
 40
1
 10
384.274470
 20
789.601952
 30
0.0
 10
385.440918
 20
790.822113
 30
0.0
 10
386.937854
 20
791.379899
 30
0.0
 10
388.765281
 20
791.275311
 30
0.0
  0
SPLINE
  5
18e
100
AcDbEntity
  8
Layer_1
 62
7
100
AcDbSpline
 70
8
 71
3
 72
8
 73
4
 74
0
 40
0
 40
0
 40
0
 40
0
 40
1
 40
1
 40
1
 40
1
 10
388.765281
 20
791.275311
 30
0.0
 10
390.126131
 20
791.205587
 30
0.0
 10
393.236645
 20
790.891833
 30
0.0
 10
398.096823
 20
790.334047
 30
0.0
  0
SPLINE
  5
18f
100
AcDbEntity
  8
Layer_1
 62
7
100
AcDbSpline
 70
8
 71
3
 72
8
 73
4
 74
0
 40
0
 40
0
 40
0
 40
0
 40
1
 40
1
 40
1
 40
1
 10
398.096823
 20
790.334047
 30
0.0
 10
401.984971
 20
789.915707
 30
0.0
 10
405.134370
 20
789.706537
 30
0.0
 10
407.545020
 20
789.706537
 30
0.0
  0
SPLINE
  5
190
100
AcDbEntity
  8
Layer_1
 62
7
100
AcDbSpline
 70
8
 71
3
 72
8
 73
4
 74
0
 40
0
 40
0
 40
0
 40
0
 40
1
 40
1
 40
1
 40
1
 10
407.545020
 20
789.706537
 30
0.0
 10
409.877907
 20
789.706537
 30
0.0
 10
413.416119
 20
789.741399
 30
0.0
 10
418.159657
 20
789.811122
 30
0.0
  0
SPLINE
  5
191
100
AcDbEntity
  8
Layer_1
 62
7
100
AcDbSpline
 70
8
 71
3
 72
8
 73
4
 74
0
 40
0
 40
0
 40
0
 40
0
 40
1
 40
1
 40
1
 40
1
 10
418.159657
 20
789.811122
 30
0.0
 10
422.903194
 20
789.915704
 30
0.0
 10
426.441403
 20
789.967995
 30
0.0
 10
428.774283
 20
789.967995
 30
0.0
  0
SPLINE
  5
192
100
AcDbEntity
  8
Layer_1
 62
7
100
AcDbSpline
 70
8
 71
3
 72
8
 73
4
 74
0
 40
0
 40
0
 40
0
 40
0
 40
1
 40
1
 40
1
 40
1
 10
428.774283
 20
789.967995
 30
0.0
 10
431.768157
 20
789.967995
 30
0.0
 10
436.200643
 20
789.776257
 30
0.0
 10
442.071743
 20
789.392783
 30
0.0
  0
SPLINE
  5
193
100
AcDbEntity
  8
Layer_1
 62
7
100
AcDbSpline
 70
8
 71
3
 72
8
 73
4
 74
0
 40
0
 40
0
 40
0
 40
0
 40
1
 40
1
 40
1
 40
1
 10
442.071743
 20
789.392783
 30
0.0
 10
447.981720
 20
789.009301
 30
0.0
 10
452.433646
 20
788.817561
 30
0.0
 10
455.427520
 20
788.817561
 30
0.0
  0
SPLINE
  5
194
100
AcDbEntity
  8
Layer_1
 62
7
100
AcDbSpline
 70
8
 71
3
 72
8
 73
4
 74
0
 40
0
 40
0
 40
0
 40
0
 40
1
 40
1
 40
1
 40
1
 10
455.427520
 20
788.817561
 30
0.0
 10
457.099421
 20
788.817561
 30
0.0
 10
458.499152
 20
788.294636
 30
0.0
 10
459.626715
 20
787.248787
 30
0.0
  0
SPLINE
  5
195
100
AcDbEntity
  8
Layer_1
 62
7
100
AcDbSpline
 70
8
 71
3
 72
8
 73
4
 74
0
 40
0
 40
0
 40
0
 40
0
 40
1
 40
1
 40
1
 40
1
 10
459.626715
 20
787.248787
 30
0.0
 10
460.754277
 20
786.237797
 30
0.0
 10
461.318058
 20
784.965342
 30
0.0
 10
461.318058
 20
783.431424
 30
0.0
  0
SPLINE
  5
196
100
AcDbEntity
  8
Layer_1
 62
7
100
AcDbSpline
 70
8
 71
3
 72
8
 73
4
 74
0
 40
0
 40
0
 40
0
 40
0
 40
1
 40
1
 40
1
 40
1
 10
461.318058
 20
783.431424
 30
0.0
 10
461.318058
 20
781.932371
 30
0.0
 10
460.754277
 20
780.659916
 30
0.0
 10
459.626715
 20
779.614061
 30
0.0
  0
SPLINE
  5
197
100
AcDbEntity
  8
Layer_1
 62
7
100
AcDbSpline
 70
8
 71
3
 72
8
 73
4
 74
0
 40
0
 40
0
 40
0
 40
0
 40
1
 40
1
 40
1
 40
1
 10
459.626715
 20
779.614061
 30
0.0
 10
458.499152
 20
778.603071
 30
0.0
 10
457.099421
 20
778.097575
 30
0.0
 10
455.427520
 20
778.097575
 30
0.0
  0
LWPOLYLINE
  5
198
100
AcDbEntity
  8
Layer_1
 62
7
100
AcDbPolyline
 90
2
 70
0
 10
412.852338
 20
779.038820
 30
0.0
 10
407.545020
 20
778.986552
 30
0.0
  0
LWPOLYLINE
  5
199
100
AcDbEntity
  8
Layer_1
 62
7
100
AcDbPolyline
 90
1
 70
1
 10
455.427520
 20
778.097575
 30
0.0
  0
LWPOLYLINE
  5
19a
100
AcDbEntity
  8
Layer_1
 62
7
100
AcDbPolyline
 90
11
 70
1
 10
243.341145
 20
820.696936
 30
0.0
 10
246.306953
 20
820.696936
 30
0.0
 10
246.306953
 20
812.472035
 30
0.0
 10
256.144038
 20
820.696936
 30
0.0
 10
259.961416
 20
820.696936
 30
0.0
 10
249.081895
 20
811.624777
 30
0.0
 10
260.739574
 20
801.236112
 30
0.0
 10
256.834107
 20
801.236112
 30
0.0
 10
246.306953
 20
810.608069
 30
0.0
 10
246.306953
 20
801.236112
 30
0.0
 10
243.341145
 20
801.236112
 30
0.0
  0
SPLINE
  5
19b
100
AcDbEntity
  8
Layer_1
 62
7
100
AcDbSpline
 70
8
 71
3
 72
8
 73
4
 74
0
 40
0
 40
0
 40
0
 40
0
 40
1
 40
1
 40
1
 40
1
 10
265.702166
 20
808.874459
 30
0.0
 10
265.702166
 20
806.788906
 30
0.0
 10
266.127953
 20
805.285570
 30
0.0
 10
266.979525
 20
804.364450
 30
0.0
  0
SPLINE
  5
19c
100
AcDbEntity
  8
Layer_1
 62
7
100
AcDbSpline
 70
8
 71
3
 72
8
 73
4
 74
0
 40
0
 40
0
 40
0
 40
0
 40
1
 40
1
 40
1
 40
1
 10
266.979525
 20
804.364450
 30
0.0
 10
267.831091
 20
803.452018
 30
0.0
 10
269.211221
 20
802.995802
 30
0.0
 10
271.119915
 20
802.995802
 30
0.0
  0
SPLINE
  5
19d
100
AcDbEntity
  8
Layer_1
 62
7
100
AcDbSpline
 70
8
 71
3
 72
8
 73
4
 74
0
 40
0
 40
0
 40
0
 40
0
 40
1
 40
1
 40
1
 40
1
 10
271.119915
 20
802.995802
 30
0.0
 10
273.018810
 20
802.995802
 30
0.0
 10
274.394044
 20
803.452018
 30
0.0
 10
275.245616
 20
804.364450
 30
0.0
  0
SPLINE
  5
19e
100
AcDbEntity
  8
Layer_1
 62
7
100
AcDbSpline
 70
8
 71
3
 72
8
 73
4
 74
0
 40
0
 40
0
 40
0
 40
0
 40
1
 40
1
 40
1
 40
1
 10
275.245616
 20
804.364450
 30
0.0
 10
276.097182
 20
805.285570
 30
0.0
 10
276.522965
 20
806.788906
 30
0.0
 10
276.522965
 20
808.874459
 30
0.0
  0
LWPOLYLINE
  5
19f
100
AcDbEntity
  8
Layer_1
 62
7
100
AcDbPolyline
 90
3
 70
0
 10
262.721679
 20
820.696936
 30
0.0
 10
265.702166
 20
820.696936
 30
0.0
 10
265.702166
 20
808.874459
 30
0.0
  0
SPLINE
  5
1a0
100
AcDbEntity
  8
Layer_1
 62
7
100
AcDbSpline
 70
8
 71
3
 72
8
 73
4
 74
0
 40
0
 40
0
 40
0
 40
0
 40
1
 40
1
 40
1
 40
1
 10
279.503462
 20
808.548590
 30
0.0
 10
279.503462
 20
806.011165
 30
0.0
 10
278.793819
 20
804.095062
 30
0.0
 10
277.374534
 20
802.800281
 30
0.0
  0
SPLINE
  5
1a1
100
AcDbEntity
  8
Layer_1
 62
7
100
AcDbSpline
 70
8
 71
3
 72
8
 73
4
 74
0
 40
0
 40
0
 40
0
 40
0
 40
1
 40
1
 40
1
 40
1
 10
277.374534
 20
802.800281
 30
0.0
 10
275.965041
 20
801.505500
 30
0.0
 10
273.880168
 20
800.858110
 30
0.0
 10
271.119915
 20
800.858110
 30
0.0
  0
SPLINE
  5
1a2
100
AcDbEntity
  8
Layer_1
 62
7
100
AcDbSpline
 70
8
 71
3
 72
8
 73
4
 74
0
 40
0
 40
0
 40
0
 40
0
 40
1
 40
1
 40
1
 40
1
 10
271.119915
 20
800.858110
 30
0.0
 10
268.349863
 20
800.858110
 30
0.0
 10
266.255197
 20
801.505500
 30
0.0
 10
264.835919
 20
802.800281
 30
0.0
  0
SPLINE
  5
1a3
100
AcDbEntity
  8
Layer_1
 62
7
100
AcDbSpline
 70
8
 71
3
 72
8
 73
4
 74
0
 40
0
 40
0
 40
0
 40
0
 40
1
 40
1
 40
1
 40
1
 10
264.835919
 20
802.800281
 30
0.0
 10
263.426426
 20
804.095062
 30
0.0
 10
262.721679
 20
806.011165
 30
0.0
 10
262.721679
 20
808.548590
 30
0.0
  0
LWPOLYLINE
  5
1a4
100
AcDbEntity
  8
Layer_1
 62
7
100
AcDbPolyline
 90
4
 70
0
 10
276.522965
 20
808.874459
 30
0.0
 10
276.522965
 20
820.696936
 30
0.0
 10
279.503462
 20
820.696936
 30
0.0
 10
279.503462
 20
808.548590
 30
0.0
  0
LWPOLYLINE
  5
1a5
100
AcDbEntity
  8
Layer_1
 62
7
100
AcDbPolyline
 90
2
 70
0
 10
262.721679
 20
808.548590
 30
0.0
 10
262.721679
 20
820.696936
 30
0.0
  0
LWPOLYLINE
  5
1a6
100
AcDbEntity
  8
Layer_1
 62
7
100
AcDbPolyline
 90
10
 70
1
 10
285.068023
 20
820.696936
 30
0.0
 10
289.061590
 20
820.696936
 30
0.0
 10
298.781219
 20
804.416584
 30
0.0
 10
298.781219
 20
820.696936
 30
0.0
 10
301.658938
 20
820.696936
 30
0.0
 10
301.658938
 20
801.236112
 30
0.0
 10
297.665371
 20
801.236112
 30
0.0
 10
287.945742
 20
817.516464
 30
0.0
 10
287.945742
 20
801.236112
 30
0.0
 10
285.068023
 20
801.236112
 30
0.0
  0
LWPOLYLINE
  5
1a7
100
AcDbEntity
  8
Layer_1
 62
7
100
AcDbPolyline
 90
4
 70
1
 10
165.765014
 20
700.088290
 30
0.0
 10
167.652559
 20
700.088290
 30
0.0
 10
167.652559
 20
675.422452
 30
0.0
 10
165.765014
 20
675.422452
 30
0.0
  0
SPLINE
  5
1a8
100
AcDbEntity
  8
Layer_1
 62
7
100
AcDbSpline
 70
8
 71
3
 72
8
 73
4
 74
0
 40
0
 40
0
 40
0
 40
0
 40
1
 40
1
 40
1
 40
1
 10
181.659633
 20
678.164936
 30
0.0
 10
183.584556
 20
678.164936
 30
0.0
 10
184.992427
 20
678.935916
 30
0.0
 10
185.883247
 20
680.477875
 30
0.0
  0
SPLINE
  5
1a9
100
AcDbEntity
  8
Layer_1
 62
7
100
AcDbSpline
 70
8
 71
3
 72
8
 73
4
 74
0
 40
0
 40
0
 40
0
 40
0
 40
1
 40
1
 40
1
 40
1
 10
185.883247
 20
680.477875
 30
0.0
 10
186.780299
 20
682.019834
 30
0.0
 10
187.228825
 20
684.453926
 30
0.0
 10
187.228825
 20
687.780152
 30
0.0
  0
SPLINE
  5
1aa
100
AcDbEntity
  8
Layer_1
 62
7
100
AcDbSpline
 70
8
 71
3
 72
8
 73
4
 74
0
 40
0
 40
0
 40
0
 40
0
 40
1
 40
1
 40
1
 40
1
 10
187.228825
 20
687.780152
 30
0.0
 10
187.228825
 20
691.084350
 30
0.0
 10
186.780299
 20
693.501922
 30
0.0
 10
185.883247
 20
695.032867
 30
0.0
  0
SPLINE
  5
1ab
100
AcDbEntity
  8
Layer_1
 62
7
100
AcDbSpline
 70
8
 71
3
 72
8
 73
4
 74
0
 40
0
 40
0
 40
0
 40
0
 40
1
 40
1
 40
1
 40
1
 10
185.883247
 20
695.032867
 30
0.0
 10
184.992427
 20
696.574826
 30
0.0
 10
183.584556
 20
697.345805
 30
0.0
 10
181.659633
 20
697.345805
 30
0.0
  0
LWPOLYLINE
  5
1ac
100
AcDbEntity
  8
Layer_1
 62
7
100
AcDbPolyline
 90
3
 70
0
 10
179.379630
 20
697.345805
 30
0.0
 10
179.379630
 20
678.164936
 30
0.0
 10
181.659633
 20
678.164936
 30
0.0
  0
LWPOLYLINE
  5
1ad
100
AcDbEntity
  8
Layer_1
 62
7
100
AcDbPolyline
 90
2
 70
0
 10
181.659633
 20
697.345805
 30
0.0
 10
179.379630
 20
697.345805
 30
0.0
  0
SPLINE
  5
1ae
100
AcDbEntity
  8
Layer_1
 62
7
100
AcDbSpline
 70
8
 71
3
 72
8
 73
4
 74
0
 40
0
 40
0
 40
0
 40
0
 40
1
 40
1
 40
1
 40
1
 10
181.369960
 20
700.088290
 30
0.0
 10
184.073571
 20
700.088290
 30
0.0
 10
186.057674
 20
699.091523
 30
0.0
 10
187.322269
 20
697.097991
 30
0.0
  0
SPLINE
  5
1af
100
AcDbEntity
  8
Layer_1
 62
7
100
AcDbSpline
 70
8
 71
3
 72
8
 73
4
 74
0
 40
0
 40
0
 40
0
 40
0
 40
1
 40
1
 40
1
 40
1
 10
187.322269
 20
697.097991
 30
0.0
 10
188.586860
 20
695.115472
 30
0.0
 10
189.219155
 20
692.009526
 30
0.0
 10
189.219155
 20
687.780152
 30
0.0
  0
SPLINE
  5
1b0
100
AcDbEntity
  8
Layer_1
 62
7
100
AcDbSpline
 70
8
 71
3
 72
8
 73
4
 74
0
 40
0
 40
0
 40
0
 40
0
 40
1
 40
1
 40
1
 40
1
 10
189.219155
 20
687.780152
 30
0.0
 10
189.219155
 20
683.528752
 30
0.0
 10
188.583744
 20
680.406284
 30
0.0
 10
187.312921
 20
678.412751
 30
0.0
  0
SPLINE
  5
1b1
100
AcDbEntity
  8
Layer_1
 62
7
100
AcDbSpline
 70
8
 71
3
 72
8
 73
4
 74
0
 40
0
 40
0
 40
0
 40
0
 40
1
 40
1
 40
1
 40
1
 10
187.312921
 20
678.412751
 30
0.0
 10
186.042098
 20
676.419218
 30
0.0
 10
184.061111
 20
675.422452
 30
0.0
 10
181.369960
 20
675.422452
 30
0.0
  0
LWPOLYLINE
  5
1b2
100
AcDbEntity
  8
Layer_1
 62
7
100
AcDbPolyline
 90
2
 70
0
 10
177.492085
 20
700.088290
 30
0.0
 10
181.369960
 20
700.088290
 30
0.0
  0
LWPOLYLINE
  5
1b3
100
AcDbEntity
  8
Layer_1
 62
7
100
AcDbPolyline
 90
3
 70
0
 10
181.369960
 20
675.422452
 30
0.0
 10
177.492085
 20
675.422452
 30
0.0
 10
177.492085
 20
700.088290
 30
0.0
  0
LWPOLYLINE
  5
1b4
100
AcDbEntity
  8
Layer_1
 62
7
100
AcDbPolyline
 90
12
 70
1
 10
192.228014
 20
700.088290
 30
0.0
 10
201.049011
 20
700.088290
 30
0.0
 10
201.049011
 20
697.279722
 30
0.0
 10
194.115559
 20
697.279722
 30
0.0
 10
194.115559
 20
689.977444
 30
0.0
 10
200.759338
 20
689.977444
 30
0.0
 10
200.759338
 20
687.168876
 30
0.0
 10
194.115559
 20
687.168876
 30
0.0
 10
194.115559
 20
678.231020
 30
0.0
 10
201.217210
 20
678.231020
 30
0.0
 10
201.217210
 20
675.422452
 30
0.0
 10
192.228014
 20
675.422452
 30
0.0
  0
LWPOLYLINE
  5
1b5
100
AcDbEntity
  8
Layer_1
 62
7
100
AcDbPolyline
 90
10
 70
1
 10
204.319512
 20
700.088290
 30
0.0
 10
206.861158
 20
700.088290
 30
0.0
 10
213.047066
 20
679.453574
 30
0.0
 10
213.047066
 20
700.088290
 30
0.0
 10
214.878545
 20
700.088290
 30
0.0
 10
214.878545
 20
675.422452
 30
0.0
 10
212.336899
 20
675.422452
 30
0.0
 10
206.150991
 20
696.057169
 30
0.0
 10
206.150991
 20
675.422452
 30
0.0
 10
204.319512
 20
675.422452
 30
0.0
  0
LWPOLYLINE
  5
1b6
100
AcDbEntity
  8
Layer_1
 62
7
100
AcDbPolyline
 90
10
 70
1
 10
218.634947
 20
700.088290
 30
0.0
 10
221.176593
 20
700.088290
 30
0.0
 10
227.362500
 20
679.453574
 30
0.0
 10
227.362500
 20
700.088290
 30
0.0
 10
229.193980
 20
700.088290
 30
0.0
 10
229.193980
 20
675.422452
 30
0.0
 10
226.652341
 20
675.422452
 30
0.0
 10
220.466426
 20
696.057169
 30
0.0
 10
220.466426
 20
675.422452
 30
0.0
 10
218.634947
 20
675.422452
 30
0.0
  0
LWPOLYLINE
  5
1b7
100
AcDbEntity
  8
Layer_1
 62
7
100
AcDbPolyline
 90
12
 70
1
 10
232.950382
 20
700.088290
 30
0.0
 10
241.771379
 20
700.088290
 30
0.0
 10
241.771379
 20
697.279722
 30
0.0
 10
234.837927
 20
697.279722
 30
0.0
 10
234.837927
 20
689.977444
 30
0.0
 10
241.481707
 20
689.977444
 30
0.0
 10
241.481707
 20
687.168876
 30
0.0
 10
234.837927
 20
687.168876
 30
0.0
 10
234.837927
 20
678.231020
 30
0.0
 10
241.939578
 20
678.231020
 30
0.0
 10
241.939578
 20
675.422452
 30
0.0
 10
232.950382
 20
675.422452
 30
0.0
  0
SPLINE
  5
1b8
100
AcDbEntity
  8
Layer_1
 62
7
100
AcDbSpline
 70
8
 71
3
 72
8
 73
4
 74
0
 40
0
 40
0
 40
0
 40
0
 40
1
 40
1
 40
1
 40
1
 10
256.040096
 20
678.164936
 30
0.0
 10
257.055508
 20
678.164936
 30
0.0
 10
257.806163
 20
678.533905
 30
0.0
 10
258.292062
 20
679.271843
 30
0.0
  0
SPLINE
  5
1b9
100
AcDbEntity
  8
Layer_1
 62
7
100
AcDbSpline
 70
8
 71
3
 72
8
 73
4
 74
0
 40
0
 40
0
 40
0
 40
0
 40
1
 40
1
 40
1
 40
1
 10
258.292062
 20
679.271843
 30
0.0
 10
258.784197
 20
680.020794
 30
0.0
 10
259.030265
 20
681.160742
 30
0.0
 10
259.030265
 20
682.691687
 30
0.0
  0
SPLINE
  5
1ba
100
AcDbEntity
  8
Layer_1
 62
7
100
AcDbSpline
 70
8
 71
3
 72
8
 73
4
 74
0
 40
0
 40
0
 40
0
 40
0
 40
1
 40
1
 40
1
 40
1
 10
259.030265
 20
682.691687
 30
0.0
 10
259.030265
 20
684.233646
 30
0.0
 10
258.784197
 20
685.368088
 30
0.0
 10
258.292062
 20
686.095012
 30
0.0
  0
SPLINE
  5
1bb
100
AcDbEntity
  8
Layer_1
 62
7
100
AcDbSpline
 70
8
 71
3
 72
8
 73
4
 74
0
 40
0
 40
0
 40
0
 40
0
 40
1
 40
1
 40
1
 40
1
 10
258.292062
 20
686.095012
 30
0.0
 10
257.806163
 20
686.832949
 30
0.0
 10
257.055508
 20
687.201918
 30
0.0
 10
256.040096
 20
687.201918
 30
0.0
  0
LWPOLYLINE
  5
1bc
100
AcDbEntity
  8
Layer_1
 62
7
100
AcDbPolyline
 90
3
 70
0
 10
253.012549
 20
687.201918
 30
0.0
 10
253.012549
 20
678.164936
 30
0.0
 10
256.040096
 20
678.164936
 30
0.0
  0
LWPOLYLINE
  5
1bd
100
AcDbEntity
  8
Layer_1
 62
7
100
AcDbPolyline
 90
2
 70
0
 10
256.040096
 20
687.201918
 30
0.0
 10
253.012549
 20
687.201918
 30
0.0
  0
SPLINE
  5
1be
100
AcDbEntity
  8
Layer_1
 62
7
100
AcDbSpline
 70
8
 71
3
 72
8
 73
4
 74
0
 40
0
 40
0
 40
0
 40
0
 40
1
 40
1
 40
1
 40
1
 10
255.806490
 20
689.911360
 30
0.0
 10
256.728455
 20
689.911360
 30
0.0
 10
257.413701
 20
690.214245
 30
0.0
 10
257.862227
 20
690.820014
 30
0.0
  0
SPLINE
  5
1bf
100
AcDbEntity
  8
Layer_1
 62
7
100
AcDbSpline
 70
8
 71
3
 72
8
 73
4
 74
0
 40
0
 40
0
 40
0
 40
0
 40
1
 40
1
 40
1
 40
1
 10
257.862227
 20
690.820014
 30
0.0
 10
258.316985
 20
691.436799
 30
0.0
 10
258.544364
 20
692.372988
 30
0.0
 10
258.544364
 20
693.628583
 30
0.0
  0
SPLINE
  5
1c0
100
AcDbEntity
  8
Layer_1
 62
7
100
AcDbSpline
 70
8
 71
3
 72
8
 73
4
 74
0
 40
0
 40
0
 40
0
 40
0
 40
1
 40
1
 40
1
 40
1
 10
258.544364
 20
693.628583
 30
0.0
 10
258.544364
 20
694.873164
 30
0.0
 10
258.316985
 20
695.803847
 30
0.0
 10
257.862227
 20
696.420630
 30
0.0
  0
SPLINE
  5
1c1
100
AcDbEntity
  8
Layer_1
 62
7
100
AcDbSpline
 70
8
 71
3
 72
8
 73
4
 74
0
 40
0
 40
0
 40
0
 40
0
 40
1
 40
1
 40
1
 40
1
 10
257.862227
 20
696.420630
 30
0.0
 10
257.413701
 20
697.037413
 30
0.0
 10
256.728455
 20
697.345805
 30
0.0
 10
255.806490
 20
697.345805
 30
0.0
  0
LWPOLYLINE
  5
1c2
100
AcDbEntity
  8
Layer_1
 62
7
100
AcDbPolyline
 90
3
 70
0
 10
253.012549
 20
697.345805
 30
0.0
 10
253.012549
 20
689.911360
 30
0.0
 10
255.806490
 20
689.911360
 30
0.0
  0
LWPOLYLINE
  5
1c3
100
AcDbEntity
  8
Layer_1
 62
7
100
AcDbPolyline
 90
2
 70
0
 10
255.806490
 20
697.345805
 30
0.0
 10
253.012549
 20
697.345805
 30
0.0
  0
SPLINE
  5
1c4
100
AcDbEntity
  8
Layer_1
 62
7
100
AcDbSpline
 70
8
 71
3
 72
8
 73
4
 74
0
 40
0
 40
0
 40
0
 40
0
 40
1
 40
1
 40
1
 40
1
 10
255.946652
 20
700.088290
 30
0.0
 10
257.385671
 20
700.088290
 30
0.0
 10
258.494525
 20
699.559618
 30
0.0
 10
259.273212
 20
698.502274
 30
0.0
  0
SPLINE
  5
1c5
100
AcDbEntity
  8
Layer_1
 62
7
100
AcDbSpline
 70
8
 71
3
 72
8
 73
4
 74
0
 40
0
 40
0
 40
0
 40
0
 40
1
 40
1
 40
1
 40
1
 10
259.273212
 20
698.502274
 30
0.0
 10
260.051904
 20
697.444931
 30
0.0
 10
260.441250
 20
695.941521
 30
0.0
 10
260.441250
 20
693.992045
 30
0.0
  0
SPLINE
  5
1c6
100
AcDbEntity
  8
Layer_1
 62
7
100
AcDbSpline
 70
8
 71
3
 72
8
 73
4
 74
0
 40
0
 40
0
 40
0
 40
0
 40
1
 40
1
 40
1
 40
1
 10
260.441250
 20
693.992045
 30
0.0
 10
260.441250
 20
692.483128
 30
0.0
 10
260.241906
 20
691.282603
 30
0.0
 10
259.843216
 20
690.390469
 30
0.0
  0
SPLINE
  5
1c7
100
AcDbEntity
  8
Layer_1
 62
7
100
AcDbSpline
 70
8
 71
3
 72
8
 73
4
 74
0
 40
0
 40
0
 40
0
 40
0
 40
1
 40
1
 40
1
 40
1
 10
259.843216
 20
690.390469
 30
0.0
 10
259.444527
 20
689.498335
 30
0.0
 10
258.858952
 20
688.942129
 30
0.0
 10
258.086492
 20
688.721849
 30
0.0
  0
SPLINE
  5
1c8
100
AcDbEntity
  8
Layer_1
 62
7
100
AcDbSpline
 70
8
 71
3
 72
8
 73
4
 74
0
 40
0
 40
0
 40
0
 40
0
 40
1
 40
1
 40
1
 40
1
 10
258.086492
 20
688.721849
 30
0.0
 10
259.014690
 20
688.369401
 30
0.0
 10
259.734200
 20
687.631463
 30
0.0
 10
260.245022
 20
686.508036
 30
0.0
  0
SPLINE
  5
1c9
100
AcDbEntity
  8
Layer_1
 62
7
100
AcDbSpline
 70
8
 71
3
 72
8
 73
4
 74
0
 40
0
 40
0
 40
0
 40
0
 40
1
 40
1
 40
1
 40
1
 10
260.245022
 20
686.508036
 30
0.0
 10
260.762071
 20
685.395623
 30
0.0
 10
261.020595
 20
684.002353
 30
0.0
 10
261.020595
 20
682.328226
 30
0.0
  0
SPLINE
  5
1ca
100
AcDbEntity
  8
Layer_1
 62
7
100
AcDbSpline
 70
8
 71
3
 72
8
 73
4
 74
0
 40
0
 40
0
 40
0
 40
0
 40
1
 40
1
 40
1
 40
1
 10
261.020595
 20
682.328226
 30
0.0
 10
261.020595
 20
680.125427
 30
0.0
 10
260.596988
 20
678.423765
 30
0.0
 10
259.749772
 20
677.223240
 30
0.0
  0
SPLINE
  5
1cb
100
AcDbEntity
  8
Layer_1
 62
7
100
AcDbSpline
 70
8
 71
3
 72
8
 73
4
 74
0
 40
0
 40
0
 40
0
 40
0
 40
1
 40
1
 40
1
 40
1
 10
259.749772
 20
677.223240
 30
0.0
 10
258.902557
 20
676.022715
 30
0.0
 10
257.697146
 20
675.422452
 30
0.0
 10
256.133540
 20
675.422452
 30
0.0
  0
LWPOLYLINE
  5
1cc
100
AcDbEntity
  8
Layer_1
 62
7
100
AcDbPolyline
 90
2
 70
0
 10
251.125004
 20
700.088290
 30
0.0
 10
255.946652
 20
700.088290
 30
0.0
  0
LWPOLYLINE
  5
1cd
100
AcDbEntity
  8
Layer_1
 62
7
100
AcDbPolyline
 90
3
 70
0
 10
256.133540
 20
675.422452
 30
0.0
 10
251.125004
 20
675.422452
 30
0.0
 10
251.125004
 20
700.088290
 30
0.0
  0
LWPOLYLINE
  5
1ce
100
AcDbEntity
  8
Layer_1
 62
7
100
AcDbPolyline
 90
12
 70
1
 10
264.253719
 20
700.088290
 30
0.0
 10
273.074716
 20
700.088290
 30
0.0
 10
273.074716
 20
697.279722
 30
0.0
 10
266.141264
 20
697.279722
 30
0.0
 10
266.141264
 20
689.977444
 30
0.0
 10
272.785044
 20
689.977444
 30
0.0
 10
272.785044
 20
687.168876
 30
0.0
 10
266.141264
 20
687.168876
 30
0.0
 10
266.141264
 20
678.231020
 30
0.0
 10
273.242915
 20
678.231020
 30
0.0
 10
273.242915
 20
675.422452
 30
0.0
 10
264.253719
 20
675.422452
 30
0.0
  0
SPLINE
  5
1cf
100
AcDbEntity
  8
Layer_1
 62
7
100
AcDbSpline
 70
8
 71
3
 72
8
 73
4
 74
0
 40
0
 40
0
 40
0
 40
0
 40
1
 40
1
 40
1
 40
1
 10
296.398036
 20
697.824915
 30
0.0
 10
295.027540
 20
697.824915
 30
0.0
 10
293.937373
 20
696.921767
 30
0.0
 10
293.127535
 20
695.115473
 30
0.0
  0
SPLINE
  5
1d0
100
AcDbEntity
  8
Layer_1
 62
7
100
AcDbSpline
 70
8
 71
3
 72
8
 73
4
 74
0
 40
0
 40
0
 40
0
 40
0
 40
1
 40
1
 40
1
 40
1
 10
293.127535
 20
695.115473
 30
0.0
 10
292.323930
 20
693.309177
 30
0.0
 10
291.922127
 20
690.847550
 30
0.0
 10
291.922127
 20
687.730590
 30
0.0
  0
SPLINE
  5
1d1
100
AcDbEntity
  8
Layer_1
 62
7
100
AcDbSpline
 70
8
 71
3
 72
8
 73
4
 74
0
 40
0
 40
0
 40
0
 40
0
 40
1
 40
1
 40
1
 40
1
 10
291.922127
 20
687.730590
 30
0.0
 10
291.922127
 20
684.624644
 30
0.0
 10
292.323930
 20
682.168523
 30
0.0
 10
293.127535
 20
680.362228
 30
0.0
  0
SPLINE
  5
1d2
100
AcDbEntity
  8
Layer_1
 62
7
100
AcDbSpline
 70
8
 71
3
 72
8
 73
4
 74
0
 40
0
 40
0
 40
0
 40
0
 40
1
 40
1
 40
1
 40
1
 10
293.127535
 20
680.362228
 30
0.0
 10
293.937373
 20
678.555933
 30
0.0
 10
295.027540
 20
677.652786
 30
0.0
 10
296.398036
 20
677.652786
 30
0.0
  0
SPLINE
  5
1d3
100
AcDbEntity
  8
Layer_1
 62
7
100
AcDbSpline
 70
8
 71
3
 72
8
 73
4
 74
0
 40
0
 40
0
 40
0
 40
0
 40
1
 40
1
 40
1
 40
1
 10
296.398036
 20
677.652786
 30
0.0
 10
297.768533
 20
677.652786
 30
0.0
 10
298.852470
 20
678.555933
 30
0.0
 10
299.649849
 20
680.362228
 30
0.0
  0
SPLINE
  5
1d4
100
AcDbEntity
  8
Layer_1
 62
7
100
AcDbSpline
 70
8
 71
3
 72
8
 73
4
 74
0
 40
0
 40
0
 40
0
 40
0
 40
1
 40
1
 40
1
 40
1
 10
299.649849
 20
680.362228
 30
0.0
 10
300.453454
 20
682.168523
 30
0.0
 10
300.855257
 20
684.624644
 30
0.0
 10
300.855257
 20
687.730590
 30
0.0
  0
SPLINE
  5
1d5
100
AcDbEntity
  8
Layer_1
 62
7
100
AcDbSpline
 70
8
 71
3
 72
8
 73
4
 74
0
 40
0
 40
0
 40
0
 40
0
 40
1
 40
1
 40
1
 40
1
 10
300.855257
 20
687.730590
 30
0.0
 10
300.855257
 20
690.847550
 30
0.0
 10
300.453454
 20
693.309177
 30
0.0
 10
299.649849
 20
695.115473
 30
0.0
  0
SPLINE
  5
1d6
100
AcDbEntity
  8
Layer_1
 62
7
100
AcDbSpline
 70
8
 71
3
 72
8
 73
4
 74
0
 40
0
 40
0
 40
0
 40
0
 40
1
 40
1
 40
1
 40
1
 10
299.649849
 20
695.115473
 30
0.0
 10
298.852470
 20
696.921767
 30
0.0
 10
297.768533
 20
697.824915
 30
0.0
 10
296.398036
 20
697.824915
 30
0.0
  0
LWPOLYLINE
  5
1d7
100
AcDbEntity
  8
Layer_1
 62
7
100
AcDbPolyline
 90
12
 70
1
 10
276.345210
 20
700.088290
 30
0.0
 10
278.232755
 20
700.088290
 30
0.0
 10
278.232755
 20
689.977444
 30
0.0
 10
285.091460
 20
689.977444
 30
0.0
 10
285.091460
 20
700.088290
 30
0.0
 10
286.978998
 20
700.088290
 30
0.0
 10
286.978998
 20
675.422452
 30
0.0
 10
285.091460
 20
675.422452
 30
0.0
 10
285.091460
 20
687.168876
 30
0.0
 10
278.232755
 20
687.168876
 30
0.0
 10
278.232755
 20
675.422452
 30
0.0
 10
276.345210
 20
675.422452
 30
0.0
  0
SPLINE
  5
1d8
100
AcDbEntity
  8
Layer_1
 62
7
100
AcDbSpline
 70
8
 71
3
 72
8
 73
4
 74
0
 40
0
 40
0
 40
0
 40
0
 40
1
 40
1
 40
1
 40
1
 10
296.398036
 20
700.534357
 30
0.0
 10
298.354105
 20
700.534357
 30
0.0
 10
299.917714
 20
699.372380
 30
0.0
 10
301.088863
 20
697.048428
 30
0.0
  0
SPLINE
  5
1d9
100
AcDbEntity
  8
Layer_1
 62
7
100
AcDbSpline
 70
8
 71
3
 72
8
 73
4
 74
0
 40
0
 40
0
 40
0
 40
0
 40
1
 40
1
 40
1
 40
1
 10
301.088863
 20
697.048428
 30
0.0
 10
302.260013
 20
694.735489
 30
0.0
 10
302.845587
 20
691.629543
 30
0.0
 10
302.845587
 20
687.730590
 30
0.0
  0
SPLINE
  5
1da
100
AcDbEntity
  8
Layer_1
 62
7
100
AcDbSpline
 70
8
 71
3
 72
8
 73
4
 74
0
 40
0
 40
0
 40
0
 40
0
 40
1
 40
1
 40
1
 40
1
 10
302.845587
 20
687.730590
 30
0.0
 10
302.845587
 20
683.842650
 30
0.0
 10
302.260013
 20
680.736704
 30
0.0
 10
301.088863
 20
678.412751
 30
0.0
  0
SPLINE
  5
1db
100
AcDbEntity
  8
Layer_1
 62
7
100
AcDbSpline
 70
8
 71
3
 72
8
 73
4
 74
0
 40
0
 40
0
 40
0
 40
0
 40
1
 40
1
 40
1
 40
1
 10
301.088863
 20
678.412751
 30
0.0
 10
299.917714
 20
676.099813
 30
0.0
 10
298.354105
 20
674.943343
 30
0.0
 10
296.398036
 20
674.943343
 30
0.0
  0
SPLINE
  5
1dc
100
AcDbEntity
  8
Layer_1
 62
7
100
AcDbSpline
 70
8
 71
3
 72
8
 73
4
 74
0
 40
0
 40
0
 40
0
 40
0
 40
1
 40
1
 40
1
 40
1
 10
296.398036
 20
674.943343
 30
0.0
 10
294.435736
 20
674.943343
 30
0.0
 10
292.865897
 20
676.099813
 30
0.0
 10
291.688521
 20
678.412751
 30
0.0
  0
SPLINE
  5
1dd
100
AcDbEntity
  8
Layer_1
 62
7
100
AcDbSpline
 70
8
 71
3
 72
8
 73
4
 74
0
 40
0
 40
0
 40
0
 40
0
 40
1
 40
1
 40
1
 40
1
 10
291.688521
 20
678.412751
 30
0.0
 10
290.517372
 20
680.725690
 30
0.0
 10
289.931797
 20
683.831636
 30
0.0
 10
289.931797
 20
687.730590
 30
0.0
  0
SPLINE
  5
1de
100
AcDbEntity
  8
Layer_1
 62
7
100
AcDbSpline
 70
8
 71
3
 72
8
 73
4
 74
0
 40
0
 40
0
 40
0
 40
0
 40
1
 40
1
 40
1
 40
1
 10
289.931797
 20
687.730590
 30
0.0
 10
289.931797
 20
691.629543
 30
0.0
 10
290.517372
 20
694.735489
 30
0.0
 10
291.688521
 20
697.048428
 30
0.0
  0
SPLINE
  5
1df
100
AcDbEntity
  8
Layer_1
 62
7
100
AcDbSpline
 70
8
 71
3
 72
8
 73
4
 74
0
 40
0
 40
0
 40
0
 40
0
 40
1
 40
1
 40
1
 40
1
 10
291.688521
 20
697.048428
 30
0.0
 10
292.865897
 20
699.372380
 30
0.0
 10
294.435736
 20
700.534357
 30
0.0
 10
296.398036
 20
700.534357
 30
0.0
  0
LWPOLYLINE
  5
1e0
100
AcDbEntity
  8
Layer_1
 62
7
100
AcDbPolyline
 90
1
 70
1
 10
296.398036
 20
697.824915
 30
0.0
  0
LWPOLYLINE
  5
1e1
100
AcDbEntity
  8
Layer_1
 62
7
100
AcDbPolyline
 90
1
 70
1
 10
296.398036
 20
700.534357
 30
0.0
  0
LWPOLYLINE
  5
1e2
100
AcDbEntity
  8
Layer_1
 62
7
100
AcDbPolyline
 90
6
 70
1
 10
305.798371
 20
700.088290
 30
0.0
 10
307.685917
 20
700.088290
 30
0.0
 10
307.685917
 20
678.231020
 30
0.0
 10
314.479207
 20
678.231020
 30
0.0
 10
314.479207
 20
675.422452
 30
0.0
 10
305.798371
 20
675.422452
 30
0.0
  0
SPLINE
  5
1e3
100
AcDbEntity
  8
Layer_1
 62
7
100
AcDbSpline
 70
8
 71
3
 72
8
 73
4
 74
0
 40
0
 40
0
 40
0
 40
0
 40
1
 40
1
 40
1
 40
1
 10
320.627752
 20
678.164936
 30
0.0
 10
322.552675
 20
678.164936
 30
0.0
 10
323.960546
 20
678.935916
 30
0.0
 10
324.851366
 20
680.477875
 30
0.0
  0
SPLINE
  5
1e4
100
AcDbEntity
  8
Layer_1
 62
7
100
AcDbSpline
 70
8
 71
3
 72
8
 73
4
 74
0
 40
0
 40
0
 40
0
 40
0
 40
1
 40
1
 40
1
 40
1
 10
324.851366
 20
680.477875
 30
0.0
 10
325.748418
 20
682.019834
 30
0.0
 10
326.196944
 20
684.453926
 30
0.0
 10
326.196944
 20
687.780152
 30
0.0
  0
SPLINE
  5
1e5
100
AcDbEntity
  8
Layer_1
 62
7
100
AcDbSpline
 70
8
 71
3
 72
8
 73
4
 74
0
 40
0
 40
0
 40
0
 40
0
 40
1
 40
1
 40
1
 40
1
 10
326.196944
 20
687.780152
 30
0.0
 10
326.196944
 20
691.084350
 30
0.0
 10
325.748418
 20
693.501922
 30
0.0
 10
324.851366
 20
695.032867
 30
0.0
  0
SPLINE
  5
1e6
100
AcDbEntity
  8
Layer_1
 62
7
100
AcDbSpline
 70
8
 71
3
 72
8
 73
4
 74
0
 40
0
 40
0
 40
0
 40
0
 40
1
 40
1
 40
1
 40
1
 10
324.851366
 20
695.032867
 30
0.0
 10
323.960546
 20
696.574826
 30
0.0
 10
322.552675
 20
697.345805
 30
0.0
 10
320.627752
 20
697.345805
 30
0.0
  0
LWPOLYLINE
  5
1e7
100
AcDbEntity
  8
Layer_1
 62
7
100
AcDbPolyline
 90
3
 70
0
 10
318.347749
 20
697.345805
 30
0.0
 10
318.347749
 20
678.164936
 30
0.0
 10
320.627752
 20
678.164936
 30
0.0
  0
LWPOLYLINE
  5
1e8
100
AcDbEntity
  8
Layer_1
 62
7
100
AcDbPolyline
 90
2
 70
0
 10
320.627752
 20
697.345805
 30
0.0
 10
318.347749
 20
697.345805
 30
0.0
  0
SPLINE
  5
1e9
100
AcDbEntity
  8
Layer_1
 62
7
100
AcDbSpline
 70
8
 71
3
 72
8
 73
4
 74
0
 40
0
 40
0
 40
0
 40
0
 40
1
 40
1
 40
1
 40
1
 10
320.338079
 20
700.088290
 30
0.0
 10
323.041690
 20
700.088290
 30
0.0
 10
325.025793
 20
699.091523
 30
0.0
 10
326.290388
 20
697.097991
 30
0.0
  0
SPLINE
  5
1ea
100
AcDbEntity
  8
Layer_1
 62
7
100
AcDbSpline
 70
8
 71
3
 72
8
 73
4
 74
0
 40
0
 40
0
 40
0
 40
0
 40
1
 40
1
 40
1
 40
1
 10
326.290388
 20
697.097991
 30
0.0
 10
327.554979
 20
695.115472
 30
0.0
 10
328.187275
 20
692.009526
 30
0.0
 10
328.187275
 20
687.780152
 30
0.0
  0
SPLINE
  5
1eb
100
AcDbEntity
  8
Layer_1
 62
7
100
AcDbSpline
 70
8
 71
3
 72
8
 73
4
 74
0
 40
0
 40
0
 40
0
 40
0
 40
1
 40
1
 40
1
 40
1
 10
328.187275
 20
687.780152
 30
0.0
 10
328.187275
 20
683.528752
 30
0.0
 10
327.551863
 20
680.406284
 30
0.0
 10
326.281040
 20
678.412751
 30
0.0
  0
SPLINE
  5
1ec
100
AcDbEntity
  8
Layer_1
 62
7
100
AcDbSpline
 70
8
 71
3
 72
8
 73
4
 74
0
 40
0
 40
0
 40
0
 40
0
 40
1
 40
1
 40
1
 40
1
 10
326.281040
 20
678.412751
 30
0.0
 10
325.010217
 20
676.419218
 30
0.0
 10
323.029230
 20
675.422452
 30
0.0
 10
320.338079
 20
675.422452
 30
0.0
  0
LWPOLYLINE
  5
1ed
100
AcDbEntity
  8
Layer_1
 62
7
100
AcDbPolyline
 90
2
 70
0
 10
316.460204
 20
700.088290
 30
0.0
 10
320.338079
 20
700.088290
 30
0.0
  0
LWPOLYLINE
  5
1ee
100
AcDbEntity
  8
Layer_1
 62
7
100
AcDbPolyline
 90
3
 70
0
 10
320.338079
 20
675.422452
 30
0.0
 10
316.460204
 20
675.422452
 30
0.0
 10
316.460204
 20
700.088290
 30
0.0
  0
SPLINE
  5
1ef
100
AcDbEntity
  8
Layer_1
 62
7
100
AcDbSpline
 70
8
 71
3
 72
8
 73
4
 74
0
 40
0
 40
0
 40
0
 40
0
 40
1
 40
1
 40
1
 40
1
 10
349.903374
 20
686.987146
 30
0.0
 10
350.308295
 20
686.744837
 30
0.0
 10
350.700755
 20
686.227179
 30
0.0
 10
351.080753
 20
685.434172
 30
0.0
  0
SPLINE
  5
1f0
100
AcDbEntity
  8
Layer_1
 62
7
100
AcDbSpline
 70
8
 71
3
 72
8
 73
4
 74
0
 40
0
 40
0
 40
0
 40
0
 40
1
 40
1
 40
1
 40
1
 10
351.080753
 20
685.434172
 30
0.0
 10
351.466983
 20
684.641165
 30
0.0
 10
351.853213
 20
683.550779
 30
0.0
 10
352.239443
 20
682.163016
 30
0.0
  0
LWPOLYLINE
  5
1f1
100
AcDbEntity
  8
Layer_1
 62
7
100
AcDbPolyline
 90
12
 70
1
 10
331.196133
 20
700.088290
 30
0.0
 10
340.017130
 20
700.088290
 30
0.0
 10
340.017130
 20
697.279722
 30
0.0
 10
333.083678
 20
697.279722
 30
0.0
 10
333.083678
 20
689.977444
 30
0.0
 10
339.727458
 20
689.977444
 30
0.0
 10
339.727458
 20
687.168876
 30
0.0
 10
333.083678
 20
687.168876
 30
0.0
 10
333.083678
 20
678.231020
 30
0.0
 10
340.185329
 20
678.231020
 30
0.0
 10
340.185329
 20
675.422452
 30
0.0
 10
331.196133
 20
675.422452
 30
0.0
  0
SPLINE
  5
1f2
100
AcDbEntity
  8
Layer_1
 62
7
100
AcDbSpline
 70
8
 71
3
 72
8
 73
4
 74
0
 40
0
 40
0
 40
0
 40
0
 40
1
 40
1
 40
1
 40
1
 10
350.342557
 20
681.749991
 30
0.0
 10
349.881571
 20
683.402090
 30
0.0
 10
349.433045
 20
684.497983
 30
0.0
 10
348.996978
 20
685.037668
 30
0.0
  0
SPLINE
  5
1f3
100
AcDbEntity
  8
Layer_1
 62
7
100
AcDbSpline
 70
8
 71
3
 72
8
 73
4
 74
0
 40
0
 40
0
 40
0
 40
0
 40
1
 40
1
 40
1
 40
1
 10
348.996978
 20
685.037668
 30
0.0
 10
348.567144
 20
685.577353
 30
0.0
 10
347.978456
 20
685.847196
 30
0.0
 10
347.230914
 20
685.847196
 30
0.0
  0
LWPOLYLINE
  5
1f4
100
AcDbEntity
  8
Layer_1
 62
7
100
AcDbPolyline
 90
4
 70
0
 10
352.239443
 20
682.163016
 30
0.0
 10
354.155025
 20
675.422452
 30
0.0
 10
352.127317
 20
675.422452
 30
0.0
 10
350.342557
 20
681.749991
 30
0.0
  0
SPLINE
  5
1f5
100
AcDbEntity
  8
Layer_1
 62
7
100
AcDbSpline
 70
8
 71
3
 72
8
 73
4
 74
0
 40
0
 40
0
 40
0
 40
0
 40
1
 40
1
 40
1
 40
1
 10
347.548616
 20
700.088290
 30
0.0
 10
349.143373
 20
700.088290
 30
0.0
 10
350.333211
 20
699.499041
 30
0.0
 10
351.118130
 20
698.320544
 30
0.0
  0
SPLINE
  5
1f6
100
AcDbEntity
  8
Layer_1
 62
7
100
AcDbSpline
 70
8
 71
3
 72
8
 73
4
 74
0
 40
0
 40
0
 40
0
 40
0
 40
1
 40
1
 40
1
 40
1
 10
351.118130
 20
698.320544
 30
0.0
 10
351.903049
 20
697.142047
 30
0.0
 10
352.295509
 20
695.363287
 30
0.0
 10
352.295509
 20
692.984265
 30
0.0
  0
SPLINE
  5
1f7
100
AcDbEntity
  8
Layer_1
 62
7
100
AcDbSpline
 70
8
 71
3
 72
8
 73
4
 74
0
 40
0
 40
0
 40
0
 40
0
 40
1
 40
1
 40
1
 40
1
 10
352.295509
 20
692.984265
 30
0.0
 10
352.295509
 20
691.431292
 30
0.0
 10
352.089935
 20
690.142654
 30
0.0
 10
351.678786
 20
689.118352
 30
0.0
  0
SPLINE
  5
1f8
100
AcDbEntity
  8
Layer_1
 62
7
100
AcDbSpline
 70
8
 71
3
 72
8
 73
4
 74
0
 40
0
 40
0
 40
0
 40
0
 40
1
 40
1
 40
1
 40
1
 10
351.678786
 20
689.118352
 30
0.0
 10
351.273870
 20
688.094051
 30
0.0
 10
350.682066
 20
687.383649
 30
0.0
 10
349.903374
 20
686.987146
 30
0.0
  0
LWPOLYLINE
  5
1f9
100
AcDbEntity
  8
Layer_1
 62
7
100
AcDbPolyline
 90
6
 70
0
 10
347.230914
 20
685.847196
 30
0.0
 10
345.175169
 20
685.847196
 30
0.0
 10
345.175169
 20
675.422452
 30
0.0
 10
343.287624
 20
675.422452
 30
0.0
 10
343.287624
 20
700.088290
 30
0.0
 10
347.548616
 20
700.088290
 30
0.0
  0
LWPOLYLINE
  5
1fa
100
AcDbEntity
  8
Layer_1
 62
7
100
AcDbPolyline
 90
1
 70
1
 10
349.903374
 20
686.987146
 30
0.0
  0
SPLINE
  5
1fb
100
AcDbEntity
  8
Layer_1
 62
7
100
AcDbSpline
 70
8
 71
3
 72
8
 73
4
 74
0
 40
0
 40
0
 40
0
 40
0
 40
1
 40
1
 40
1
 40
1
 10
347.548616
 20
688.589681
 30
0.0
 10
348.458127
 20
688.589681
 30
0.0
 10
349.143375
 20
688.958650
 30
0.0
 10
349.604360
 20
689.696588
 30
0.0
  0
SPLINE
  5
1fc
100
AcDbEntity
  8
Layer_1
 62
7
100
AcDbSpline
 70
8
 71
3
 72
8
 73
4
 74
0
 40
0
 40
0
 40
0
 40
0
 40
1
 40
1
 40
1
 40
1
 10
349.604360
 20
689.696588
 30
0.0
 10
350.071573
 20
690.445539
 30
0.0
 10
350.305179
 20
691.541431
 30
0.0
 10
350.305179
 20
692.984265
 30
0.0
  0
SPLINE
  5
1fd
100
AcDbEntity
  8
Layer_1
 62
7
100
AcDbSpline
 70
8
 71
3
 72
8
 73
4
 74
0
 40
0
 40
0
 40
0
 40
0
 40
1
 40
1
 40
1
 40
1
 10
350.305179
 20
692.984265
 30
0.0
 10
350.305179
 20
694.427097
 30
0.0
 10
350.071573
 20
695.511976
 30
0.0
 10
349.604360
 20
696.238900
 30
0.0
  0
SPLINE
  5
1fe
100
AcDbEntity
  8
Layer_1
 62
7
100
AcDbSpline
 70
8
 71
3
 72
8
 73
4
 74
0
 40
0
 40
0
 40
0
 40
0
 40
1
 40
1
 40
1
 40
1
 10
349.604360
 20
696.238900
 30
0.0
 10
349.143375
 20
696.976837
 30
0.0
 10
348.458127
 20
697.345805
 30
0.0
 10
347.548616
 20
697.345805
 30
0.0
  0
LWPOLYLINE
  5
1ff
100
AcDbEntity
  8
Layer_1
 62
7
100
AcDbPolyline
 90
3
 70
0
 10
345.175169
 20
697.345805
 30
0.0
 10
345.175169
 20
688.589681
 30
0.0
 10
347.548616
 20
688.589681
 30
0.0
  0
LWPOLYLINE
  5
200
100
AcDbEntity
  8
Layer_1
 62
7
100
AcDbPolyline
 90
2
 70
0
 10
347.548616
 20
697.345805
 30
0.0
 10
345.175169
 20
697.345805
 30
0.0
  0
LWPOLYLINE
  5
201
100
AcDbEntity
  8
Layer_1
 62
7
100
AcDbPolyline
 90
12
 70
1
 10
356.584531
 20
700.088290
 30
0.0
 10
365.405528
 20
700.088290
 30
0.0
 10
365.405528
 20
697.279722
 30
0.0
 10
358.472069
 20
697.279722
 30
0.0
 10
358.472069
 20
689.977444
 30
0.0
 10
365.115856
 20
689.977444
 30
0.0
 10
365.115856
 20
687.168876
 30
0.0
 10
358.472069
 20
687.168876
 30
0.0
 10
358.472069
 20
678.231020
 30
0.0
 10
365.573727
 20
678.231020
 30
0.0
 10
365.573727
 20
675.422452
 30
0.0
 10
356.584531
 20
675.422452
 30
0.0
  0
SPLINE
  5
202
100
AcDbEntity
  8
Layer_1
 62
7
100
AcDbSpline
 70
8
 71
3
 72
8
 73
4
 74
0
 40
0
 40
0
 40
0
 40
0
 40
1
 40
1
 40
1
 40
1
 10
185.017580
 20
559.277310
 30
0.0
 10
136.356640
 20
559.277310
 30
0.0
 10
97.164060
 20
520.084750
 30
0.0
 10
97.164060
 20
471.423810
 30
0.0
  0
LWPOLYLINE
  5
203
100
AcDbEntity
  8
Layer_1
 62
7
100
AcDbPolyline
 90
10
 70
1
 10
368.676029
 20
700.088290
 30
0.0
 10
371.217675
 20
700.088290
 30
0.0
 10
377.403590
 20
679.453574
 30
0.0
 10
377.403590
 20
700.088290
 30
0.0
 10
379.235069
 20
700.088290
 30
0.0
 10
379.235069
 20
675.422452
 30
0.0
 10
376.693424
 20
675.422452
 30
0.0
 10
370.507508
 20
696.057169
 30
0.0
 10
370.507508
 20
675.422452
 30
0.0
 10
368.676029
 20
675.422452
 30
0.0
  0
SPLINE
  5
204
100
AcDbEntity
  8
Layer_1
 62
7
100
AcDbSpline
 70
8
 71
3
 72
8
 73
4
 74
0
 40
0
 40
0
 40
0
 40
0
 40
1
 40
1
 40
1
 40
1
 10
97.164060
 20
183.576150
 30
0.0
 10
97.164060
 20
134.915200
 30
0.0
 10
136.356640
 20
95.722630
 30
0.0
 10
185.017580
 20
95.722630
 30
0.0
  0
LWPOLYLINE
  5
205
100
AcDbEntity
  8
Layer_1
 62
7
100
AcDbPolyline
 90
2
 70
0
 10
97.164060
 20
471.423810
 30
0.0
 10
97.164060
 20
183.576150
 30
0.0
  0
SPLINE
  5
206
100
AcDbEntity
  8
Layer_1
 62
7
100
AcDbSpline
 70
8
 71
3
 72
8
 73
4
 74
0
 40
0
 40
0
 40
0
 40
0
 40
1
 40
1
 40
1
 40
1
 10
359.982420
 20
95.722630
 30
0.0
 10
408.643360
 20
95.722630
 30
0.0
 10
447.835930
 20
134.915200
 30
0.0
 10
447.835930
 20
183.576150
 30
0.0
  0
LWPOLYLINE
  5
207
100
AcDbEntity
  8
Layer_1
 62
7
100
AcDbPolyline
 90
2
 70
0
 10
185.017580
 20
95.722630
 30
0.0
 10
359.982420
 20
95.722630
 30
0.0
  0
SPLINE
  5
208
100
AcDbEntity
  8
Layer_1
 62
7
100
AcDbSpline
 70
8
 71
3
 72
8
 73
4
 74
0
 40
0
 40
0
 40
0
 40
0
 40
1
 40
1
 40
1
 40
1
 10
447.835930
 20
471.423810
 30
0.0
 10
447.835930
 20
520.084750
 30
0.0
 10
408.643370
 20
559.277310
 30
0.0
 10
359.982420
 20
559.277310
 30
0.0
  0
LWPOLYLINE
  5
209
100
AcDbEntity
  8
Layer_1
 62
7
100
AcDbPolyline
 90
2
 70
0
 10
447.835930
 20
183.576150
 30
0.0
 10
447.835930
 20
471.423810
 30
0.0
  0
LWPOLYLINE
  5
20a
100
AcDbEntity
  8
Layer_1
 62
7
100
AcDbPolyline
 90
2
 70
0
 10
359.982420
 20
559.277310
 30
0.0
 10
185.017580
 20
559.277310
 30
0.0
  0
SPLINE
  5
20b
100
AcDbEntity
  8
Layer_1
 62
7
100
AcDbSpline
 70
8
 71
3
 72
8
 73
4
 74
0
 40
0
 40
0
 40
0
 40
0
 40
1
 40
1
 40
1
 40
1
 10
359.982420
 20
558.123020
 30
0.0
 10
408.023680
 20
558.123020
 30
0.0
 10
446.681630
 20
519.465070
 30
0.0
 10
446.681630
 20
471.423810
 30
0.0
  0
LWPOLYLINE
  5
20c
100
AcDbEntity
  8
Layer_1
 62
7
100
AcDbPolyline
 90
2
 70
0
 10
185.017580
 20
558.123020
 30
0.0
 10
359.982420
 20
558.123020
 30
0.0
  0
SPLINE
  5
20d
100
AcDbEntity
  8
Layer_1
 62
7
100
AcDbSpline
 70
8
 71
3
 72
8
 73
4
 74
0
 40
0
 40
0
 40
0
 40
0
 40
1
 40
1
 40
1
 40
1
 10
446.681630
 20
183.576150
 30
0.0
 10
446.681630
 20
135.534880
 30
0.0
 10
408.023680
 20
96.876920
 30
0.0
 10
359.982420
 20
96.876920
 30
0.0
  0
LWPOLYLINE
  5
20e
100
AcDbEntity
  8
Layer_1
 62
7
100
AcDbPolyline
 90
2
 70
0
 10
446.681630
 20
471.423810
 30
0.0
 10
446.681630
 20
183.576150
 30
0.0
  0
SPLINE
  5
20f
100
AcDbEntity
  8
Layer_1
 62
7
100
AcDbSpline
 70
8
 71
3
 72
8
 73
4
 74
0
 40
0
 40
0
 40
0
 40
0
 40
1
 40
1
 40
1
 40
1
 10
185.017580
 20
96.876920
 30
0.0
 10
136.976320
 20
96.876920
 30
0.0
 10
98.318360
 20
135.534880
 30
0.0
 10
98.318360
 20
183.576150
 30
0.0
  0
LWPOLYLINE
  5
210
100
AcDbEntity
  8
Layer_1
 62
7
100
AcDbPolyline
 90
2
 70
0
 10
359.982420
 20
96.876920
 30
0.0
 10
185.017580
 20
96.876920
 30
0.0
  0
SPLINE
  5
211
100
AcDbEntity
  8
Layer_1
 62
7
100
AcDbSpline
 70
8
 71
3
 72
8
 73
4
 74
0
 40
0
 40
0
 40
0
 40
0
 40
1
 40
1
 40
1
 40
1
 10
98.318360
 20
471.423810
 30
0.0
 10
98.318360
 20
519.465070
 30
0.0
 10
136.976320
 20
558.123020
 30
0.0
 10
185.017580
 20
558.123020
 30
0.0
  0
LWPOLYLINE
  5
212
100
AcDbEntity
  8
Layer_1
 62
7
100
AcDbPolyline
 90
2
 70
0
 10
98.318360
 20
183.576150
 30
0.0
 10
98.318360
 20
471.423810
 30
0.0
  0
LWPOLYLINE
  5
213
100
AcDbEntity
  8
Layer_1
 62
7
100
AcDbPolyline
 90
1
 70
1
 10
185.017580
 20
558.123020
 30
0.0
  0
LWPOLYLINE
  5
214
100
AcDbEntity
  8
Layer_1
 62
7
100
AcDbPolyline
 90
2
 70
0
 10
61.499998
 20
604.499973
 30
0.0
 10
483.500000
 20
604.499973
 30
0.0
  0
ENDSEC
  0
SECTION
  2
OBJECTS
  0
DICTIONARY
  5
C
330
0
100
AcDbDictionary
  3
ACAD_GROUP
350
D
  3
ACAD_MLINESTYLE
350
17
  0
DICTIONARY
  5
D
330
C
100
AcDbDictionary
  0
DICTIONARY
  5
1A
330
C
100
AcDbDictionary
  0
DICTIONARY
  5
17
330
C
100
AcDbDictionary
  3
STANDARD
350
18
  0
DICTIONARY
  5
19
330
C
100
AcDbDictionary
  0
ENDSEC
  0
EOF
